ISO-10303-21;
HEADER;
/* Generated by software containing ST-Developer
 * from STEP Tools, Inc. (www.steptools.com) 
 */

FILE_DESCRIPTION(
/* description */ (''),
/* implementation_level */ '2;1');

FILE_NAME(
/* name */ 
'C:/Users/ldfli/OneDrive - pioneerna.com/Documents/Models/stp/SXC25-M1
50.step',
/* time_stamp */ '2021-02-01T11:35:34-06:00',
/* author */ (''),
/* organization */ (''),
/* preprocessor_version */ 'ST-DEVELOPER v18.1',
/* originating_system */ 'Autodesk Translation Framework v9.7.1.1290',
/* authorisation */ '');

FILE_SCHEMA (('AUTOMOTIVE_DESIGN { 1 0 10303 214 3 1 1 }'));
ENDSEC;

DATA;
#10=MECHANICAL_DESIGN_GEOMETRIC_PRESENTATION_REPRESENTATION('',(#13),#575);
#11=SHAPE_REPRESENTATION_RELATIONSHIP('SRR','None',#582,#12);
#12=ADVANCED_BREP_SHAPE_REPRESENTATION('',(#14),#574);
#13=STYLED_ITEM('',(#591),#14);
#14=MANIFOLD_SOLID_BREP('Body1',#307);
#15=FACE_BOUND('',#64,.T.);
#16=FACE_BOUND('',#66,.T.);
#17=FACE_BOUND('',#69,.T.);
#18=FACE_BOUND('',#73,.T.);
#19=FACE_BOUND('',#78,.T.);
#20=FACE_BOUND('',#79,.T.);
#21=FACE_BOUND('',#80,.T.);
#22=FACE_BOUND('',#85,.T.);
#23=FACE_BOUND('',#86,.T.);
#24=FACE_BOUND('',#87,.T.);
#25=PLANE('',#334);
#26=PLANE('',#336);
#27=PLANE('',#341);
#28=PLANE('',#347);
#29=PLANE('',#357);
#30=PLANE('',#367);
#31=TOROIDAL_SURFACE('',#327,14.242,0.700000000000001);
#32=TOROIDAL_SURFACE('',#345,7.93,0.379999999999999);
#33=TOROIDAL_SURFACE('',#349,14.9,0.500000000000002);
#34=TOROIDAL_SURFACE('',#354,14.9,0.5);
#35=TOROIDAL_SURFACE('',#359,20.425,0.499999999999998);
#36=TOROIDAL_SURFACE('',#364,20.425,0.499999999999998);
#37=TOROIDAL_SURFACE('',#369,7.93,0.379999999999998);
#38=FACE_OUTER_BOUND('',#59,.T.);
#39=FACE_OUTER_BOUND('',#60,.T.);
#40=FACE_OUTER_BOUND('',#61,.T.);
#41=FACE_OUTER_BOUND('',#62,.T.);
#42=FACE_OUTER_BOUND('',#63,.T.);
#43=FACE_OUTER_BOUND('',#65,.T.);
#44=FACE_OUTER_BOUND('',#67,.T.);
#45=FACE_OUTER_BOUND('',#68,.T.);
#46=FACE_OUTER_BOUND('',#70,.T.);
#47=FACE_OUTER_BOUND('',#71,.T.);
#48=FACE_OUTER_BOUND('',#72,.T.);
#49=FACE_OUTER_BOUND('',#74,.T.);
#50=FACE_OUTER_BOUND('',#75,.T.);
#51=FACE_OUTER_BOUND('',#76,.T.);
#52=FACE_OUTER_BOUND('',#77,.T.);
#53=FACE_OUTER_BOUND('',#81,.T.);
#54=FACE_OUTER_BOUND('',#82,.T.);
#55=FACE_OUTER_BOUND('',#83,.T.);
#56=FACE_OUTER_BOUND('',#84,.T.);
#57=FACE_OUTER_BOUND('',#88,.T.);
#58=FACE_OUTER_BOUND('',#89,.T.);
#59=EDGE_LOOP('',(#200,#201,#202,#203));
#60=EDGE_LOOP('',(#204,#205,#206,#207));
#61=EDGE_LOOP('',(#208,#209,#210,#211,#212));
#62=EDGE_LOOP('',(#213,#214,#215,#216,#217));
#63=EDGE_LOOP('',(#218));
#64=EDGE_LOOP('',(#219));
#65=EDGE_LOOP('',(#220));
#66=EDGE_LOOP('',(#221));
#67=EDGE_LOOP('',(#222,#223,#224,#225));
#68=EDGE_LOOP('',(#226));
#69=EDGE_LOOP('',(#227));
#70=EDGE_LOOP('',(#228,#229,#230,#231));
#71=EDGE_LOOP('',(#232,#233,#234,#235));
#72=EDGE_LOOP('',(#236));
#73=EDGE_LOOP('',(#237));
#74=EDGE_LOOP('',(#238,#239,#240,#241));
#75=EDGE_LOOP('',(#242,#243,#244,#245));
#76=EDGE_LOOP('',(#246,#247,#248,#249));
#77=EDGE_LOOP('',(#250));
#78=EDGE_LOOP('',(#251));
#79=EDGE_LOOP('',(#252));
#80=EDGE_LOOP('',(#253));
#81=EDGE_LOOP('',(#254,#255,#256,#257));
#82=EDGE_LOOP('',(#258,#259,#260,#261));
#83=EDGE_LOOP('',(#262,#263,#264,#265));
#84=EDGE_LOOP('',(#266));
#85=EDGE_LOOP('',(#267));
#86=EDGE_LOOP('',(#268));
#87=EDGE_LOOP('',(#269));
#88=EDGE_LOOP('',(#270,#271,#272,#273));
#89=EDGE_LOOP('',(#274,#275,#276,#277));
#90=LINE('',#492,#98);
#91=LINE('',#498,#99);
#92=LINE('',#511,#100);
#93=LINE('',#522,#101);
#94=LINE('',#529,#102);
#95=LINE('',#543,#103);
#96=LINE('',#558,#104);
#97=LINE('',#571,#105);
#98=VECTOR('',#379,1.6);
#99=VECTOR('',#386,1.6);
#100=VECTOR('',#403,15.);
#101=VECTOR('',#416,8.73);
#102=VECTOR('',#425,7.55);
#103=VECTOR('',#446,14.4);
#104=VECTOR('',#467,20.925);
#105=VECTOR('',#486,7.55);
#106=CIRCLE('',#322,1.6);
#107=CIRCLE('',#323,1.6);
#108=CIRCLE('',#325,1.6);
#109=CIRCLE('',#326,1.6);
#110=CIRCLE('',#328,14.242);
#111=CIRCLE('',#329,0.700000000000001);
#112=CIRCLE('',#330,14.942);
#113=CIRCLE('',#331,14.942);
#114=CIRCLE('',#333,14.942);
#115=CIRCLE('',#335,7.93000000113249);
#116=CIRCLE('',#337,8.73);
#117=CIRCLE('',#338,7.55);
#118=CIRCLE('',#340,8.73);
#119=CIRCLE('',#342,7.55);
#120=CIRCLE('',#344,7.55);
#121=CIRCLE('',#346,0.379999999999999);
#122=CIRCLE('',#348,14.9);
#123=CIRCLE('',#350,0.500000000000002);
#124=CIRCLE('',#351,14.4);
#125=CIRCLE('',#353,14.4);
#126=CIRCLE('',#355,0.5);
#127=CIRCLE('',#356,14.9);
#128=CIRCLE('',#358,20.425);
#129=CIRCLE('',#360,20.925);
#130=CIRCLE('',#361,0.499999999999998);
#131=CIRCLE('',#363,20.925);
#132=CIRCLE('',#365,20.425);
#133=CIRCLE('',#366,0.499999999999998);
#134=CIRCLE('',#368,7.93);
#135=CIRCLE('',#370,7.55);
#136=CIRCLE('',#371,0.379999999999998);
#137=VERTEX_POINT('',#489);
#138=VERTEX_POINT('',#491);
#139=VERTEX_POINT('',#495);
#140=VERTEX_POINT('',#497);
#141=VERTEX_POINT('',#501);
#142=VERTEX_POINT('',#503);
#143=VERTEX_POINT('',#505);
#144=VERTEX_POINT('',#509);
#145=VERTEX_POINT('',#513);
#146=VERTEX_POINT('',#516);
#147=VERTEX_POINT('',#518);
#148=VERTEX_POINT('',#521);
#149=VERTEX_POINT('',#525);
#150=VERTEX_POINT('',#528);
#151=VERTEX_POINT('',#534);
#152=VERTEX_POINT('',#537);
#153=VERTEX_POINT('',#541);
#154=VERTEX_POINT('',#545);
#155=VERTEX_POINT('',#549);
#156=VERTEX_POINT('',#552);
#157=VERTEX_POINT('',#556);
#158=VERTEX_POINT('',#560);
#159=VERTEX_POINT('',#564);
#160=VERTEX_POINT('',#567);
#161=EDGE_CURVE('',#137,#137,#106,.T.);
#162=EDGE_CURVE('',#137,#138,#90,.T.);
#163=EDGE_CURVE('',#138,#138,#107,.T.);
#164=EDGE_CURVE('',#139,#139,#108,.T.);
#165=EDGE_CURVE('',#139,#140,#91,.T.);
#166=EDGE_CURVE('',#140,#140,#109,.T.);
#167=EDGE_CURVE('',#141,#141,#110,.T.);
#168=EDGE_CURVE('',#141,#142,#111,.T.);
#169=EDGE_CURVE('',#142,#143,#112,.T.);
#170=EDGE_CURVE('',#143,#142,#113,.T.);
#171=EDGE_CURVE('',#144,#144,#114,.F.);
#172=EDGE_CURVE('',#144,#143,#92,.T.);
#173=EDGE_CURVE('',#145,#145,#115,.T.);
#174=EDGE_CURVE('',#146,#146,#116,.T.);
#175=EDGE_CURVE('',#147,#147,#117,.T.);
#176=EDGE_CURVE('',#146,#148,#93,.T.);
#177=EDGE_CURVE('',#148,#148,#118,.T.);
#178=EDGE_CURVE('',#149,#149,#119,.T.);
#179=EDGE_CURVE('',#149,#150,#94,.T.);
#180=EDGE_CURVE('',#150,#150,#120,.T.);
#181=EDGE_CURVE('',#145,#150,#121,.T.);
#182=EDGE_CURVE('',#151,#151,#122,.T.);
#183=EDGE_CURVE('',#151,#152,#123,.T.);
#184=EDGE_CURVE('',#152,#152,#124,.T.);
#185=EDGE_CURVE('',#153,#153,#125,.T.);
#186=EDGE_CURVE('',#153,#152,#95,.T.);
#187=EDGE_CURVE('',#153,#154,#126,.T.);
#188=EDGE_CURVE('',#154,#154,#127,.T.);
#189=EDGE_CURVE('',#155,#155,#128,.T.);
#190=EDGE_CURVE('',#156,#156,#129,.T.);
#191=EDGE_CURVE('',#156,#155,#130,.T.);
#192=EDGE_CURVE('',#157,#157,#131,.T.);
#193=EDGE_CURVE('',#157,#156,#96,.T.);
#194=EDGE_CURVE('',#158,#158,#132,.T.);
#195=EDGE_CURVE('',#158,#157,#133,.T.);
#196=EDGE_CURVE('',#159,#159,#134,.T.);
#197=EDGE_CURVE('',#160,#160,#135,.T.);
#198=EDGE_CURVE('',#160,#159,#136,.T.);
#199=EDGE_CURVE('',#160,#147,#97,.T.);
#200=ORIENTED_EDGE('',*,*,#161,.F.);
#201=ORIENTED_EDGE('',*,*,#162,.T.);
#202=ORIENTED_EDGE('',*,*,#163,.F.);
#203=ORIENTED_EDGE('',*,*,#162,.F.);
#204=ORIENTED_EDGE('',*,*,#164,.F.);
#205=ORIENTED_EDGE('',*,*,#165,.T.);
#206=ORIENTED_EDGE('',*,*,#166,.F.);
#207=ORIENTED_EDGE('',*,*,#165,.F.);
#208=ORIENTED_EDGE('',*,*,#167,.T.);
#209=ORIENTED_EDGE('',*,*,#168,.T.);
#210=ORIENTED_EDGE('',*,*,#169,.T.);
#211=ORIENTED_EDGE('',*,*,#170,.T.);
#212=ORIENTED_EDGE('',*,*,#168,.F.);
#213=ORIENTED_EDGE('',*,*,#171,.F.);
#214=ORIENTED_EDGE('',*,*,#172,.T.);
#215=ORIENTED_EDGE('',*,*,#169,.F.);
#216=ORIENTED_EDGE('',*,*,#170,.F.);
#217=ORIENTED_EDGE('',*,*,#172,.F.);
#218=ORIENTED_EDGE('',*,*,#167,.F.);
#219=ORIENTED_EDGE('',*,*,#173,.T.);
#220=ORIENTED_EDGE('',*,*,#174,.F.);
#221=ORIENTED_EDGE('',*,*,#175,.T.);
#222=ORIENTED_EDGE('',*,*,#174,.T.);
#223=ORIENTED_EDGE('',*,*,#176,.T.);
#224=ORIENTED_EDGE('',*,*,#177,.F.);
#225=ORIENTED_EDGE('',*,*,#176,.F.);
#226=ORIENTED_EDGE('',*,*,#177,.T.);
#227=ORIENTED_EDGE('',*,*,#178,.F.);
#228=ORIENTED_EDGE('',*,*,#178,.T.);
#229=ORIENTED_EDGE('',*,*,#179,.T.);
#230=ORIENTED_EDGE('',*,*,#180,.F.);
#231=ORIENTED_EDGE('',*,*,#179,.F.);
#232=ORIENTED_EDGE('',*,*,#173,.F.);
#233=ORIENTED_EDGE('',*,*,#181,.T.);
#234=ORIENTED_EDGE('',*,*,#180,.T.);
#235=ORIENTED_EDGE('',*,*,#181,.F.);
#236=ORIENTED_EDGE('',*,*,#171,.T.);
#237=ORIENTED_EDGE('',*,*,#182,.F.);
#238=ORIENTED_EDGE('',*,*,#182,.T.);
#239=ORIENTED_EDGE('',*,*,#183,.T.);
#240=ORIENTED_EDGE('',*,*,#184,.F.);
#241=ORIENTED_EDGE('',*,*,#183,.F.);
#242=ORIENTED_EDGE('',*,*,#185,.F.);
#243=ORIENTED_EDGE('',*,*,#186,.T.);
#244=ORIENTED_EDGE('',*,*,#184,.T.);
#245=ORIENTED_EDGE('',*,*,#186,.F.);
#246=ORIENTED_EDGE('',*,*,#185,.T.);
#247=ORIENTED_EDGE('',*,*,#187,.T.);
#248=ORIENTED_EDGE('',*,*,#188,.F.);
#249=ORIENTED_EDGE('',*,*,#187,.F.);
#250=ORIENTED_EDGE('',*,*,#189,.F.);
#251=ORIENTED_EDGE('',*,*,#163,.T.);
#252=ORIENTED_EDGE('',*,*,#166,.T.);
#253=ORIENTED_EDGE('',*,*,#188,.T.);
#254=ORIENTED_EDGE('',*,*,#190,.F.);
#255=ORIENTED_EDGE('',*,*,#191,.T.);
#256=ORIENTED_EDGE('',*,*,#189,.T.);
#257=ORIENTED_EDGE('',*,*,#191,.F.);
#258=ORIENTED_EDGE('',*,*,#192,.F.);
#259=ORIENTED_EDGE('',*,*,#193,.T.);
#260=ORIENTED_EDGE('',*,*,#190,.T.);
#261=ORIENTED_EDGE('',*,*,#193,.F.);
#262=ORIENTED_EDGE('',*,*,#194,.F.);
#263=ORIENTED_EDGE('',*,*,#195,.T.);
#264=ORIENTED_EDGE('',*,*,#192,.T.);
#265=ORIENTED_EDGE('',*,*,#195,.F.);
#266=ORIENTED_EDGE('',*,*,#194,.T.);
#267=ORIENTED_EDGE('',*,*,#161,.T.);
#268=ORIENTED_EDGE('',*,*,#164,.T.);
#269=ORIENTED_EDGE('',*,*,#196,.F.);
#270=ORIENTED_EDGE('',*,*,#197,.F.);
#271=ORIENTED_EDGE('',*,*,#198,.T.);
#272=ORIENTED_EDGE('',*,*,#196,.T.);
#273=ORIENTED_EDGE('',*,*,#198,.F.);
#274=ORIENTED_EDGE('',*,*,#197,.T.);
#275=ORIENTED_EDGE('',*,*,#199,.T.);
#276=ORIENTED_EDGE('',*,*,#175,.F.);
#277=ORIENTED_EDGE('',*,*,#199,.F.);
#278=CYLINDRICAL_SURFACE('',#321,1.6);
#279=CYLINDRICAL_SURFACE('',#324,1.6);
#280=CYLINDRICAL_SURFACE('',#332,14.942);
#281=CYLINDRICAL_SURFACE('',#339,8.73);
#282=CYLINDRICAL_SURFACE('',#343,7.55);
#283=CYLINDRICAL_SURFACE('',#352,14.4);
#284=CYLINDRICAL_SURFACE('',#362,20.925);
#285=CYLINDRICAL_SURFACE('',#372,7.55);
#286=ADVANCED_FACE('',(#38),#278,.F.);
#287=ADVANCED_FACE('',(#39),#279,.F.);
#288=ADVANCED_FACE('',(#40),#31,.T.);
#289=ADVANCED_FACE('',(#41),#280,.T.);
#290=ADVANCED_FACE('',(#42,#15),#25,.T.);
#291=ADVANCED_FACE('',(#43,#16),#26,.T.);
#292=ADVANCED_FACE('',(#44),#281,.F.);
#293=ADVANCED_FACE('',(#45,#17),#27,.T.);
#294=ADVANCED_FACE('',(#46),#282,.F.);
#295=ADVANCED_FACE('',(#47),#32,.T.);
#296=ADVANCED_FACE('',(#48,#18),#28,.T.);
#297=ADVANCED_FACE('',(#49),#33,.F.);
#298=ADVANCED_FACE('',(#50),#283,.T.);
#299=ADVANCED_FACE('',(#51),#34,.F.);
#300=ADVANCED_FACE('',(#52,#19,#20,#21),#29,.T.);
#301=ADVANCED_FACE('',(#53),#35,.T.);
#302=ADVANCED_FACE('',(#54),#284,.T.);
#303=ADVANCED_FACE('',(#55),#36,.T.);
#304=ADVANCED_FACE('',(#56,#22,#23,#24),#30,.T.);
#305=ADVANCED_FACE('',(#57),#37,.T.);
#306=ADVANCED_FACE('',(#58),#285,.F.);
#307=CLOSED_SHELL('',(#286,#287,#288,#289,#290,#291,#292,#293,#294,#295,
#296,#297,#298,#299,#300,#301,#302,#303,#304,#305,#306));
#308=DERIVED_UNIT_ELEMENT(#310,1.);
#309=DERIVED_UNIT_ELEMENT(#577,-3.);
#310=(
MASS_UNIT()
NAMED_UNIT(*)
SI_UNIT(.KILO.,.GRAM.)
);
#311=DERIVED_UNIT((#308,#309));
#312=MEASURE_REPRESENTATION_ITEM('density measure',
POSITIVE_RATIO_MEASURE(7850.),#311);
#313=PROPERTY_DEFINITION_REPRESENTATION(#318,#315);
#314=PROPERTY_DEFINITION_REPRESENTATION(#319,#316);
#315=REPRESENTATION('material name',(#317),#574);
#316=REPRESENTATION('density',(#312),#574);
#317=DESCRIPTIVE_REPRESENTATION_ITEM('Steel','Steel');
#318=PROPERTY_DEFINITION('material property','material name',#584);
#319=PROPERTY_DEFINITION('material property','density of part',#584);
#320=AXIS2_PLACEMENT_3D('placement',#487,#373,#374);
#321=AXIS2_PLACEMENT_3D('',#488,#375,#376);
#322=AXIS2_PLACEMENT_3D('',#490,#377,#378);
#323=AXIS2_PLACEMENT_3D('',#493,#380,#381);
#324=AXIS2_PLACEMENT_3D('',#494,#382,#383);
#325=AXIS2_PLACEMENT_3D('',#496,#384,#385);
#326=AXIS2_PLACEMENT_3D('',#499,#387,#388);
#327=AXIS2_PLACEMENT_3D('',#500,#389,#390);
#328=AXIS2_PLACEMENT_3D('',#502,#391,#392);
#329=AXIS2_PLACEMENT_3D('',#504,#393,#394);
#330=AXIS2_PLACEMENT_3D('',#506,#395,#396);
#331=AXIS2_PLACEMENT_3D('',#507,#397,#398);
#332=AXIS2_PLACEMENT_3D('',#508,#399,#400);
#333=AXIS2_PLACEMENT_3D('',#510,#401,#402);
#334=AXIS2_PLACEMENT_3D('',#512,#404,#405);
#335=AXIS2_PLACEMENT_3D('',#514,#406,#407);
#336=AXIS2_PLACEMENT_3D('',#515,#408,#409);
#337=AXIS2_PLACEMENT_3D('',#517,#410,#411);
#338=AXIS2_PLACEMENT_3D('',#519,#412,#413);
#339=AXIS2_PLACEMENT_3D('',#520,#414,#415);
#340=AXIS2_PLACEMENT_3D('',#523,#417,#418);
#341=AXIS2_PLACEMENT_3D('',#524,#419,#420);
#342=AXIS2_PLACEMENT_3D('',#526,#421,#422);
#343=AXIS2_PLACEMENT_3D('',#527,#423,#424);
#344=AXIS2_PLACEMENT_3D('',#530,#426,#427);
#345=AXIS2_PLACEMENT_3D('',#531,#428,#429);
#346=AXIS2_PLACEMENT_3D('',#532,#430,#431);
#347=AXIS2_PLACEMENT_3D('',#533,#432,#433);
#348=AXIS2_PLACEMENT_3D('',#535,#434,#435);
#349=AXIS2_PLACEMENT_3D('',#536,#436,#437);
#350=AXIS2_PLACEMENT_3D('',#538,#438,#439);
#351=AXIS2_PLACEMENT_3D('',#539,#440,#441);
#352=AXIS2_PLACEMENT_3D('',#540,#442,#443);
#353=AXIS2_PLACEMENT_3D('',#542,#444,#445);
#354=AXIS2_PLACEMENT_3D('',#544,#447,#448);
#355=AXIS2_PLACEMENT_3D('',#546,#449,#450);
#356=AXIS2_PLACEMENT_3D('',#547,#451,#452);
#357=AXIS2_PLACEMENT_3D('',#548,#453,#454);
#358=AXIS2_PLACEMENT_3D('',#550,#455,#456);
#359=AXIS2_PLACEMENT_3D('',#551,#457,#458);
#360=AXIS2_PLACEMENT_3D('',#553,#459,#460);
#361=AXIS2_PLACEMENT_3D('',#554,#461,#462);
#362=AXIS2_PLACEMENT_3D('',#555,#463,#464);
#363=AXIS2_PLACEMENT_3D('',#557,#465,#466);
#364=AXIS2_PLACEMENT_3D('',#559,#468,#469);
#365=AXIS2_PLACEMENT_3D('',#561,#470,#471);
#366=AXIS2_PLACEMENT_3D('',#562,#472,#473);
#367=AXIS2_PLACEMENT_3D('',#563,#474,#475);
#368=AXIS2_PLACEMENT_3D('',#565,#476,#477);
#369=AXIS2_PLACEMENT_3D('',#566,#478,#479);
#370=AXIS2_PLACEMENT_3D('',#568,#480,#481);
#371=AXIS2_PLACEMENT_3D('',#569,#482,#483);
#372=AXIS2_PLACEMENT_3D('',#570,#484,#485);
#373=DIRECTION('axis',(0.,0.,1.));
#374=DIRECTION('refdir',(1.,0.,0.));
#375=DIRECTION('center_axis',(-1.,0.,0.));
#376=DIRECTION('ref_axis',(0.,1.,0.));
#377=DIRECTION('center_axis',(-1.,0.,0.));
#378=DIRECTION('ref_axis',(0.,1.,0.));
#379=DIRECTION('',(-1.,0.,0.));
#380=DIRECTION('center_axis',(1.,0.,0.));
#381=DIRECTION('ref_axis',(0.,1.,0.));
#382=DIRECTION('center_axis',(-1.,0.,0.));
#383=DIRECTION('ref_axis',(0.,1.,0.));
#384=DIRECTION('center_axis',(-1.,0.,0.));
#385=DIRECTION('ref_axis',(0.,1.,0.));
#386=DIRECTION('',(-1.,0.,0.));
#387=DIRECTION('center_axis',(1.,0.,0.));
#388=DIRECTION('ref_axis',(0.,1.,0.));
#389=DIRECTION('center_axis',(-1.,0.,0.));
#390=DIRECTION('ref_axis',(0.,0.,1.));
#391=DIRECTION('center_axis',(1.,0.,0.));
#392=DIRECTION('ref_axis',(0.,0.,-1.));
#393=DIRECTION('center_axis',(0.,-1.,1.22464679914735E-16));
#394=DIRECTION('ref_axis',(0.,-1.22464679914735E-16,-1.));
#395=DIRECTION('center_axis',(-1.,0.,0.));
#396=DIRECTION('ref_axis',(0.,0.,-1.));
#397=DIRECTION('center_axis',(-1.,0.,0.));
#398=DIRECTION('ref_axis',(0.,0.,-1.));
#399=DIRECTION('center_axis',(1.,0.,0.));
#400=DIRECTION('ref_axis',(0.,0.,-1.));
#401=DIRECTION('center_axis',(-1.,0.,0.));
#402=DIRECTION('ref_axis',(0.,0.,-1.));
#403=DIRECTION('',(-1.,0.,0.));
#404=DIRECTION('center_axis',(-1.,0.,0.));
#405=DIRECTION('ref_axis',(0.,0.,1.));
#406=DIRECTION('center_axis',(1.,0.,0.));
#407=DIRECTION('ref_axis',(0.,0.,-1.));
#408=DIRECTION('center_axis',(-1.,0.,0.));
#409=DIRECTION('ref_axis',(0.,0.,1.));
#410=DIRECTION('center_axis',(1.,0.,0.));
#411=DIRECTION('ref_axis',(0.,0.,-1.));
#412=DIRECTION('center_axis',(1.,0.,0.));
#413=DIRECTION('ref_axis',(0.,0.,-1.));
#414=DIRECTION('center_axis',(1.,0.,0.));
#415=DIRECTION('ref_axis',(0.,0.,-1.));
#416=DIRECTION('',(-1.,0.,0.));
#417=DIRECTION('center_axis',(1.,0.,0.));
#418=DIRECTION('ref_axis',(0.,0.,-1.));
#419=DIRECTION('center_axis',(1.,0.,0.));
#420=DIRECTION('ref_axis',(0.,0.,-1.));
#421=DIRECTION('center_axis',(1.,0.,0.));
#422=DIRECTION('ref_axis',(0.,0.,-1.));
#423=DIRECTION('center_axis',(1.,0.,0.));
#424=DIRECTION('ref_axis',(0.,0.,-1.));
#425=DIRECTION('',(-1.,0.,0.));
#426=DIRECTION('center_axis',(1.,0.,0.));
#427=DIRECTION('ref_axis',(0.,0.,-1.));
#428=DIRECTION('center_axis',(1.,0.,0.));
#429=DIRECTION('ref_axis',(0.,0.,-1.));
#430=DIRECTION('center_axis',(0.,-1.,-1.22464679914735E-16));
#431=DIRECTION('ref_axis',(0.,-1.22464679914735E-16,1.));
#432=DIRECTION('center_axis',(1.,0.,0.));
#433=DIRECTION('ref_axis',(0.,0.,-1.));
#434=DIRECTION('center_axis',(1.,0.,0.));
#435=DIRECTION('ref_axis',(0.,0.,-1.));
#436=DIRECTION('center_axis',(1.,0.,0.));
#437=DIRECTION('ref_axis',(0.,0.,-1.));
#438=DIRECTION('center_axis',(0.,-1.,-1.22464679914735E-16));
#439=DIRECTION('ref_axis',(0.,-1.22464679914735E-16,1.));
#440=DIRECTION('center_axis',(1.,0.,0.));
#441=DIRECTION('ref_axis',(0.,0.,-1.));
#442=DIRECTION('center_axis',(1.,0.,0.));
#443=DIRECTION('ref_axis',(0.,0.,-1.));
#444=DIRECTION('center_axis',(1.,0.,0.));
#445=DIRECTION('ref_axis',(0.,0.,-1.));
#446=DIRECTION('',(-1.,0.,0.));
#447=DIRECTION('center_axis',(1.,0.,0.));
#448=DIRECTION('ref_axis',(0.,0.,-1.));
#449=DIRECTION('center_axis',(0.,-1.,-1.22464679914735E-16));
#450=DIRECTION('ref_axis',(0.,-1.22464679914735E-16,1.));
#451=DIRECTION('center_axis',(1.,0.,0.));
#452=DIRECTION('ref_axis',(0.,0.,-1.));
#453=DIRECTION('center_axis',(-1.,0.,0.));
#454=DIRECTION('ref_axis',(0.,0.,1.));
#455=DIRECTION('center_axis',(1.,0.,0.));
#456=DIRECTION('ref_axis',(0.,0.,-1.));
#457=DIRECTION('center_axis',(1.,0.,0.));
#458=DIRECTION('ref_axis',(0.,0.,-1.));
#459=DIRECTION('center_axis',(1.,0.,0.));
#460=DIRECTION('ref_axis',(0.,0.,-1.));
#461=DIRECTION('center_axis',(0.,-1.,-1.22464679914735E-16));
#462=DIRECTION('ref_axis',(0.,-1.22464679914735E-16,1.));
#463=DIRECTION('center_axis',(1.,0.,0.));
#464=DIRECTION('ref_axis',(0.,0.,-1.));
#465=DIRECTION('center_axis',(1.,0.,0.));
#466=DIRECTION('ref_axis',(0.,0.,-1.));
#467=DIRECTION('',(-1.,0.,0.));
#468=DIRECTION('center_axis',(1.,0.,0.));
#469=DIRECTION('ref_axis',(0.,0.,-1.));
#470=DIRECTION('center_axis',(1.,0.,0.));
#471=DIRECTION('ref_axis',(0.,0.,-1.));
#472=DIRECTION('center_axis',(0.,-1.,-1.22464679914735E-16));
#473=DIRECTION('ref_axis',(0.,-1.22464679914735E-16,1.));
#474=DIRECTION('center_axis',(1.,0.,0.));
#475=DIRECTION('ref_axis',(0.,0.,-1.));
#476=DIRECTION('center_axis',(1.,0.,0.));
#477=DIRECTION('ref_axis',(0.,0.,-1.));
#478=DIRECTION('center_axis',(1.,0.,0.));
#479=DIRECTION('ref_axis',(0.,0.,-1.));
#480=DIRECTION('center_axis',(1.,0.,0.));
#481=DIRECTION('ref_axis',(0.,0.,-1.));
#482=DIRECTION('center_axis',(0.,-1.,-1.22464679914735E-16));
#483=DIRECTION('ref_axis',(0.,-1.22464679914735E-16,1.));
#484=DIRECTION('center_axis',(1.,0.,0.));
#485=DIRECTION('ref_axis',(0.,0.,-1.));
#486=DIRECTION('',(-1.,0.,0.));
#487=CARTESIAN_POINT('',(0.,0.,0.));
#488=CARTESIAN_POINT('Origin',(-1.,0.,-17.));
#489=CARTESIAN_POINT('',(1.5,-1.6,-17.));
#490=CARTESIAN_POINT('Origin',(1.5,0.,-17.));
#491=CARTESIAN_POINT('',(-1.11022302462516E-15,-1.6,-17.));
#492=CARTESIAN_POINT('',(-1.,-1.6,-17.));
#493=CARTESIAN_POINT('Origin',(-1.11022302462516E-15,0.,-17.));
#494=CARTESIAN_POINT('Origin',(-1.,0.,17.));
#495=CARTESIAN_POINT('',(1.5,-1.6,17.));
#496=CARTESIAN_POINT('Origin',(1.5,0.,17.));
#497=CARTESIAN_POINT('',(-1.11022302462516E-15,-1.6,17.));
#498=CARTESIAN_POINT('',(-1.,-1.6,17.));
#499=CARTESIAN_POINT('Origin',(-1.11022302462516E-15,0.,17.));
#500=CARTESIAN_POINT('Origin',(-4.30000007659197,0.,0.));
#501=CARTESIAN_POINT('',(-5.00000007659197,-1.74414197134566E-15,-14.242));
#502=CARTESIAN_POINT('Origin',(-5.00000007659197,0.,0.));
#503=CARTESIAN_POINT('',(-4.30000007659197,-1.82986724728598E-15,-14.942));
#504=CARTESIAN_POINT('Origin',(-4.30000007659197,-1.74414197134566E-15,
-14.242));
#505=CARTESIAN_POINT('',(-4.30000007659197,1.82986724728598E-15,14.942));
#506=CARTESIAN_POINT('Origin',(-4.30000007659197,0.,0.));
#507=CARTESIAN_POINT('Origin',(-4.30000007659197,0.,0.));
#508=CARTESIAN_POINT('Origin',(-3.15000007554889,0.,0.));
#509=CARTESIAN_POINT('',(-2.00000007450581,1.82986724728598E-15,14.942));
#510=CARTESIAN_POINT('Origin',(-2.00000007450581,0.,0.));
#511=CARTESIAN_POINT('',(-3.15000007554889,-1.82986724728598E-15,14.942));
#512=CARTESIAN_POINT('Origin',(-5.00000007659197,0.,-14.3000000020862));
#513=CARTESIAN_POINT('',(-5.00000009557605,-9.71144911862541E-16,7.93000000113249));
#514=CARTESIAN_POINT('Origin',(-5.00000009557605,0.,0.));
#515=CARTESIAN_POINT('Origin',(-1.60000009252793,0.,-8.73));
#516=CARTESIAN_POINT('',(-1.60000009252793,-1.06911665565564E-15,8.73));
#517=CARTESIAN_POINT('Origin',(-1.60000009252793,0.,0.));
#518=CARTESIAN_POINT('',(-1.60000009252793,-9.24608333356252E-16,7.55));
#519=CARTESIAN_POINT('Origin',(-1.60000009252793,0.,0.));
#520=CARTESIAN_POINT('Origin',(-2.55000009252793,0.,0.));
#521=CARTESIAN_POINT('',(-3.50000009252793,-1.06911665565564E-15,8.73));
#522=CARTESIAN_POINT('',(-2.55000009252793,-1.06911665565564E-15,8.73));
#523=CARTESIAN_POINT('Origin',(-3.50000009252793,0.,0.));
#524=CARTESIAN_POINT('Origin',(-3.50000009252793,0.,-7.55));
#525=CARTESIAN_POINT('',(-3.50000009252793,-9.24608333356252E-16,7.55));
#526=CARTESIAN_POINT('Origin',(-3.50000009252793,0.,0.));
#527=CARTESIAN_POINT('Origin',(-4.06000009405199,0.,0.));
#528=CARTESIAN_POINT('',(-4.62000009557605,-9.24608333356252E-16,7.55));
#529=CARTESIAN_POINT('',(-4.06000009405199,-9.24608333356252E-16,7.55));
#530=CARTESIAN_POINT('Origin',(-4.62000009557605,0.,0.));
#531=CARTESIAN_POINT('Origin',(-4.62000009557605,0.,0.));
#532=CARTESIAN_POINT('Origin',(-4.62000009557605,-9.71144911723851E-16,
7.93));
#533=CARTESIAN_POINT('Origin',(-2.00000007450581,0.,-14.9));
#534=CARTESIAN_POINT('',(-2.00000007450581,-1.82472373072956E-15,14.9));
#535=CARTESIAN_POINT('Origin',(-2.00000007450581,0.,0.));
#536=CARTESIAN_POINT('Origin',(-1.5000000745058,0.,0.));
#537=CARTESIAN_POINT('',(-1.50000007450581,-1.76349139077219E-15,14.4));
#538=CARTESIAN_POINT('Origin',(-1.5000000745058,-1.82472373072956E-15,14.9));
#539=CARTESIAN_POINT('Origin',(-1.50000007450581,0.,0.));
#540=CARTESIAN_POINT('Origin',(-1.0000000372529,0.,0.));
#541=CARTESIAN_POINT('',(-0.500000000000002,-1.76349139077219E-15,14.4));
#542=CARTESIAN_POINT('Origin',(-0.500000000000002,0.,0.));
#543=CARTESIAN_POINT('',(-1.0000000372529,-1.76349139077219E-15,14.4));
#544=CARTESIAN_POINT('Origin',(-0.5,0.,0.));
#545=CARTESIAN_POINT('',(1.38777878078145E-16,-1.82472373072956E-15,14.9));
#546=CARTESIAN_POINT('Origin',(-0.5,-1.82472373072956E-15,14.9));
#547=CARTESIAN_POINT('Origin',(1.38777878078145E-16,0.,0.));
#548=CARTESIAN_POINT('Origin',(-1.17961196366423E-15,0.,-20.425));
#549=CARTESIAN_POINT('',(-1.17961196366423E-15,-2.50134108725847E-15,20.425));
#550=CARTESIAN_POINT('Origin',(-1.17961196366423E-15,0.,0.));
#551=CARTESIAN_POINT('Origin',(0.499999999999997,0.,0.));
#552=CARTESIAN_POINT('',(0.5,-2.56257342721584E-15,20.925));
#553=CARTESIAN_POINT('Origin',(0.5,0.,0.));
#554=CARTESIAN_POINT('Origin',(0.499999999999997,-2.50134108725847E-15,
20.425));
#555=CARTESIAN_POINT('Origin',(0.75,0.,0.));
#556=CARTESIAN_POINT('',(1.,-2.56257342721584E-15,20.925));
#557=CARTESIAN_POINT('Origin',(1.,0.,0.));
#558=CARTESIAN_POINT('',(0.75,-2.56257342721584E-15,20.925));
#559=CARTESIAN_POINT('Origin',(1.,0.,0.));
#560=CARTESIAN_POINT('',(1.5,-2.50134108725847E-15,20.425));
#561=CARTESIAN_POINT('Origin',(1.5,0.,0.));
#562=CARTESIAN_POINT('Origin',(1.,-2.50134108725847E-15,20.425));
#563=CARTESIAN_POINT('Origin',(1.5,0.,-7.93));
#564=CARTESIAN_POINT('',(1.5,-9.71144911723851E-16,7.93));
#565=CARTESIAN_POINT('Origin',(1.5,0.,0.));
#566=CARTESIAN_POINT('Origin',(1.12,0.,0.));
#567=CARTESIAN_POINT('',(1.12,-9.24608333356252E-16,7.55));
#568=CARTESIAN_POINT('Origin',(1.12,0.,0.));
#569=CARTESIAN_POINT('Origin',(1.12,-9.71144911723851E-16,7.93));
#570=CARTESIAN_POINT('Origin',(-0.240000046263962,0.,0.));
#571=CARTESIAN_POINT('',(-0.240000046263962,-9.24608333356252E-16,7.55));
#572=UNCERTAINTY_MEASURE_WITH_UNIT(LENGTH_MEASURE(0.01),#576,
'DISTANCE_ACCURACY_VALUE',
'Maximum model space distance between geometric entities at asserted c
onnectivities');
#573=UNCERTAINTY_MEASURE_WITH_UNIT(LENGTH_MEASURE(0.01),#576,
'DISTANCE_ACCURACY_VALUE',
'Maximum model space distance between geometric entities at asserted c
onnectivities');
#574=(
GEOMETRIC_REPRESENTATION_CONTEXT(3)
GLOBAL_UNCERTAINTY_ASSIGNED_CONTEXT((#572))
GLOBAL_UNIT_ASSIGNED_CONTEXT((#576,#578,#579))
REPRESENTATION_CONTEXT('','3D')
);
#575=(
GEOMETRIC_REPRESENTATION_CONTEXT(3)
GLOBAL_UNCERTAINTY_ASSIGNED_CONTEXT((#573))
GLOBAL_UNIT_ASSIGNED_CONTEXT((#576,#578,#579))
REPRESENTATION_CONTEXT('','3D')
);
#576=(
LENGTH_UNIT()
NAMED_UNIT(*)
SI_UNIT(.MILLI.,.METRE.)
);
#577=(
LENGTH_UNIT()
NAMED_UNIT(*)
SI_UNIT($,.METRE.)
);
#578=(
NAMED_UNIT(*)
PLANE_ANGLE_UNIT()
SI_UNIT($,.RADIAN.)
);
#579=(
NAMED_UNIT(*)
SI_UNIT($,.STERADIAN.)
SOLID_ANGLE_UNIT()
);
#580=SHAPE_DEFINITION_REPRESENTATION(#581,#582);
#581=PRODUCT_DEFINITION_SHAPE('',$,#584);
#582=SHAPE_REPRESENTATION('',(#320),#574);
#583=PRODUCT_DEFINITION_CONTEXT('part definition',#588,'design');
#584=PRODUCT_DEFINITION('SXC25-M150','SXC25-M150 v1',#585,#583);
#585=PRODUCT_DEFINITION_FORMATION('',$,#590);
#586=PRODUCT_RELATED_PRODUCT_CATEGORY('SXC25-M150 v1','SXC25-M150 v1',(#590));
#587=APPLICATION_PROTOCOL_DEFINITION('international standard',
'automotive_design',2009,#588);
#588=APPLICATION_CONTEXT(
'Core Data for Automotive Mechanical Design Process');
#589=PRODUCT_CONTEXT('part definition',#588,'mechanical');
#590=PRODUCT('SXC25-M150','SXC25-M150 v1',$,(#589));
#591=PRESENTATION_STYLE_ASSIGNMENT((#592));
#592=SURFACE_STYLE_USAGE(.BOTH.,#593);
#593=SURFACE_SIDE_STYLE('',(#594));
#594=SURFACE_STYLE_FILL_AREA(#595);
#595=FILL_AREA_STYLE('Steel - Satin',(#596));
#596=FILL_AREA_STYLE_COLOUR('Steel - Satin',#597);
#597=COLOUR_RGB('Steel - Satin',0.627450980392157,0.627450980392157,0.627450980392157);
ENDSEC;
END-ISO-10303-21;
