ISO-10303-21;
HEADER;
/* Generated by software containing ST-Developer
 * from STEP Tools, Inc. (www.steptools.com) 
 */

FILE_DESCRIPTION(
/* description */ (''),
/* implementation_level */ '2;1');

FILE_NAME(
/* name */ 'C:\\Users\\ldfli\\OneDrive\\Documents\\Models\\S25-SD16-16
0.stp',
/* time_stamp */ '2019-07-09T10:44:17-05:00',
/* author */ ('ldfli'),
/* organization */ (''),
/* preprocessor_version */ 'ST-DEVELOPER v18',
/* originating_system */ 'Autodesk Inventor LT',
/* authorisation */ '');

FILE_SCHEMA (('AUTOMOTIVE_DESIGN { 1 0 10303 214 3 1 1 }'));
ENDSEC;

DATA;
#10=MECHANICAL_DESIGN_GEOMETRIC_PRESENTATION_REPRESENTATION('',(#13),#427);
#11=SHAPE_REPRESENTATION_RELATIONSHIP('SRR','None',#434,#12);
#12=ADVANCED_BREP_SHAPE_REPRESENTATION('',(#14),#426);
#13=STYLED_ITEM('',(#443),#14);
#14=MANIFOLD_SOLID_BREP('Solid1',#222);
#15=FACE_BOUND('',#40,.T.);
#16=FACE_BOUND('',#47,.T.);
#17=PLANE('',#255);
#18=PLANE('',#273);
#19=TOROIDAL_SURFACE('',#251,10.0756095083418,0.999999999999992);
#20=CONICAL_SURFACE('',#247,11.7862634210375,0.0785398163397445);
#21=CONICAL_SURFACE('',#258,8.43301270189224,0.523598775598298);
#22=CONICAL_SURFACE('',#264,8.25000000000001,1.04719755119649);
#23=CONICAL_SURFACE('',#270,8.64433756729741,0.523598775598299);
#24=CONICAL_SURFACE('',#276,12.,0.78539816339745);
#25=FACE_OUTER_BOUND('',#36,.T.);
#26=FACE_OUTER_BOUND('',#37,.T.);
#27=FACE_OUTER_BOUND('',#38,.T.);
#28=FACE_OUTER_BOUND('',#39,.T.);
#29=FACE_OUTER_BOUND('',#41,.T.);
#30=FACE_OUTER_BOUND('',#42,.T.);
#31=FACE_OUTER_BOUND('',#43,.T.);
#32=FACE_OUTER_BOUND('',#44,.T.);
#33=FACE_OUTER_BOUND('',#45,.T.);
#34=FACE_OUTER_BOUND('',#46,.T.);
#35=FACE_OUTER_BOUND('',#48,.T.);
#36=EDGE_LOOP('',(#144,#145,#146,#147,#148,#149));
#37=EDGE_LOOP('',(#150,#151,#152,#153,#154,#155,#156));
#38=EDGE_LOOP('',(#157,#158,#159,#160,#161,#162,#163));
#39=EDGE_LOOP('',(#164,#165));
#40=EDGE_LOOP('',(#166,#167));
#41=EDGE_LOOP('',(#168,#169,#170,#171,#172,#173));
#42=EDGE_LOOP('',(#174,#175,#176,#177,#178,#179));
#43=EDGE_LOOP('',(#180,#181,#182,#183,#184,#185));
#44=EDGE_LOOP('',(#186,#187,#188,#189,#190,#191));
#45=EDGE_LOOP('',(#192,#193,#194,#195,#196,#197));
#46=EDGE_LOOP('',(#198,#199));
#47=EDGE_LOOP('',(#200,#201));
#48=EDGE_LOOP('',(#202,#203,#204,#205,#206,#207));
#49=LINE('',#364,#57);
#50=LINE('',#374,#58);
#51=LINE('',#389,#59);
#52=LINE('',#395,#60);
#53=LINE('',#401,#61);
#54=LINE('',#407,#62);
#55=LINE('',#413,#63);
#56=LINE('',#423,#64);
#57=VECTOR('',#285,12.5);
#58=VECTOR('',#296,11.7862634210375);
#59=VECTOR('',#315,8.43301270189224);
#60=VECTOR('',#322,8.00000000000002);
#61=VECTOR('',#329,8.25000000000002);
#62=VECTOR('',#336,8.50000000000001);
#63=VECTOR('',#343,8.64433756729741);
#64=VECTOR('',#356,12.);
#65=CIRCLE('',#243,12.5);
#66=CIRCLE('',#244,12.5);
#67=CIRCLE('',#245,12.5);
#68=CIRCLE('',#246,12.5);
#69=CIRCLE('',#248,11.0725268420749);
#70=CIRCLE('',#249,11.0725268420749);
#71=CIRCLE('',#250,11.0725268420749);
#72=CIRCLE('',#252,10.0756095083418);
#73=CIRCLE('',#253,10.0756095083418);
#74=CIRCLE('',#254,0.999999999999992);
#75=CIRCLE('',#256,8.86602540378446);
#76=CIRCLE('',#257,8.86602540378446);
#77=CIRCLE('',#259,8.00000000000002);
#78=CIRCLE('',#260,8.00000000000002);
#79=CIRCLE('',#262,8.00000000000001);
#80=CIRCLE('',#263,8.00000000000001);
#81=CIRCLE('',#265,8.50000000000002);
#82=CIRCLE('',#266,8.50000000000002);
#83=CIRCLE('',#268,8.5);
#84=CIRCLE('',#269,8.5);
#85=CIRCLE('',#271,8.78867513459481);
#86=CIRCLE('',#272,8.78867513459481);
#87=CIRCLE('',#274,11.5);
#88=CIRCLE('',#275,11.5);
#89=VERTEX_POINT('',#359);
#90=VERTEX_POINT('',#360);
#91=VERTEX_POINT('',#363);
#92=VERTEX_POINT('',#365);
#93=VERTEX_POINT('',#369);
#94=VERTEX_POINT('',#370);
#95=VERTEX_POINT('',#372);
#96=VERTEX_POINT('',#377);
#97=VERTEX_POINT('',#378);
#98=VERTEX_POINT('',#383);
#99=VERTEX_POINT('',#384);
#100=VERTEX_POINT('',#388);
#101=VERTEX_POINT('',#390);
#102=VERTEX_POINT('',#394);
#103=VERTEX_POINT('',#396);
#104=VERTEX_POINT('',#400);
#105=VERTEX_POINT('',#402);
#106=VERTEX_POINT('',#406);
#107=VERTEX_POINT('',#408);
#108=VERTEX_POINT('',#412);
#109=VERTEX_POINT('',#414);
#110=VERTEX_POINT('',#418);
#111=VERTEX_POINT('',#419);
#112=EDGE_CURVE('',#89,#90,#65,.T.);
#113=EDGE_CURVE('',#90,#89,#66,.T.);
#114=EDGE_CURVE('',#90,#91,#49,.T.);
#115=EDGE_CURVE('',#91,#92,#67,.T.);
#116=EDGE_CURVE('',#92,#91,#68,.T.);
#117=EDGE_CURVE('',#93,#94,#69,.T.);
#118=EDGE_CURVE('',#95,#93,#70,.T.);
#119=EDGE_CURVE('',#95,#90,#50,.T.);
#120=EDGE_CURVE('',#94,#95,#71,.T.);
#121=EDGE_CURVE('',#96,#97,#72,.T.);
#122=EDGE_CURVE('',#97,#96,#73,.T.);
#123=EDGE_CURVE('',#97,#94,#74,.T.);
#124=EDGE_CURVE('',#98,#99,#75,.T.);
#125=EDGE_CURVE('',#99,#98,#76,.T.);
#126=EDGE_CURVE('',#99,#100,#51,.T.);
#127=EDGE_CURVE('',#101,#100,#77,.T.);
#128=EDGE_CURVE('',#100,#101,#78,.T.);
#129=EDGE_CURVE('',#100,#102,#52,.T.);
#130=EDGE_CURVE('',#103,#102,#79,.T.);
#131=EDGE_CURVE('',#102,#103,#80,.T.);
#132=EDGE_CURVE('',#102,#104,#53,.T.);
#133=EDGE_CURVE('',#105,#104,#81,.T.);
#134=EDGE_CURVE('',#104,#105,#82,.T.);
#135=EDGE_CURVE('',#104,#106,#54,.T.);
#136=EDGE_CURVE('',#107,#106,#83,.T.);
#137=EDGE_CURVE('',#106,#107,#84,.T.);
#138=EDGE_CURVE('',#106,#108,#55,.T.);
#139=EDGE_CURVE('',#109,#108,#85,.T.);
#140=EDGE_CURVE('',#108,#109,#86,.T.);
#141=EDGE_CURVE('',#110,#111,#87,.T.);
#142=EDGE_CURVE('',#111,#110,#88,.T.);
#143=EDGE_CURVE('',#91,#111,#56,.T.);
#144=ORIENTED_EDGE('',*,*,#112,.F.);
#145=ORIENTED_EDGE('',*,*,#113,.F.);
#146=ORIENTED_EDGE('',*,*,#114,.T.);
#147=ORIENTED_EDGE('',*,*,#115,.T.);
#148=ORIENTED_EDGE('',*,*,#116,.T.);
#149=ORIENTED_EDGE('',*,*,#114,.F.);
#150=ORIENTED_EDGE('',*,*,#117,.F.);
#151=ORIENTED_EDGE('',*,*,#118,.F.);
#152=ORIENTED_EDGE('',*,*,#119,.T.);
#153=ORIENTED_EDGE('',*,*,#113,.T.);
#154=ORIENTED_EDGE('',*,*,#112,.T.);
#155=ORIENTED_EDGE('',*,*,#119,.F.);
#156=ORIENTED_EDGE('',*,*,#120,.F.);
#157=ORIENTED_EDGE('',*,*,#121,.F.);
#158=ORIENTED_EDGE('',*,*,#122,.F.);
#159=ORIENTED_EDGE('',*,*,#123,.T.);
#160=ORIENTED_EDGE('',*,*,#120,.T.);
#161=ORIENTED_EDGE('',*,*,#118,.T.);
#162=ORIENTED_EDGE('',*,*,#117,.T.);
#163=ORIENTED_EDGE('',*,*,#123,.F.);
#164=ORIENTED_EDGE('',*,*,#121,.T.);
#165=ORIENTED_EDGE('',*,*,#122,.T.);
#166=ORIENTED_EDGE('',*,*,#124,.F.);
#167=ORIENTED_EDGE('',*,*,#125,.F.);
#168=ORIENTED_EDGE('',*,*,#124,.T.);
#169=ORIENTED_EDGE('',*,*,#126,.T.);
#170=ORIENTED_EDGE('',*,*,#127,.F.);
#171=ORIENTED_EDGE('',*,*,#128,.F.);
#172=ORIENTED_EDGE('',*,*,#126,.F.);
#173=ORIENTED_EDGE('',*,*,#125,.T.);
#174=ORIENTED_EDGE('',*,*,#127,.T.);
#175=ORIENTED_EDGE('',*,*,#129,.T.);
#176=ORIENTED_EDGE('',*,*,#130,.F.);
#177=ORIENTED_EDGE('',*,*,#131,.F.);
#178=ORIENTED_EDGE('',*,*,#129,.F.);
#179=ORIENTED_EDGE('',*,*,#128,.T.);
#180=ORIENTED_EDGE('',*,*,#130,.T.);
#181=ORIENTED_EDGE('',*,*,#132,.T.);
#182=ORIENTED_EDGE('',*,*,#133,.F.);
#183=ORIENTED_EDGE('',*,*,#134,.F.);
#184=ORIENTED_EDGE('',*,*,#132,.F.);
#185=ORIENTED_EDGE('',*,*,#131,.T.);
#186=ORIENTED_EDGE('',*,*,#133,.T.);
#187=ORIENTED_EDGE('',*,*,#135,.T.);
#188=ORIENTED_EDGE('',*,*,#136,.F.);
#189=ORIENTED_EDGE('',*,*,#137,.F.);
#190=ORIENTED_EDGE('',*,*,#135,.F.);
#191=ORIENTED_EDGE('',*,*,#134,.T.);
#192=ORIENTED_EDGE('',*,*,#136,.T.);
#193=ORIENTED_EDGE('',*,*,#138,.T.);
#194=ORIENTED_EDGE('',*,*,#139,.F.);
#195=ORIENTED_EDGE('',*,*,#140,.F.);
#196=ORIENTED_EDGE('',*,*,#138,.F.);
#197=ORIENTED_EDGE('',*,*,#137,.T.);
#198=ORIENTED_EDGE('',*,*,#141,.F.);
#199=ORIENTED_EDGE('',*,*,#142,.F.);
#200=ORIENTED_EDGE('',*,*,#139,.T.);
#201=ORIENTED_EDGE('',*,*,#140,.T.);
#202=ORIENTED_EDGE('',*,*,#116,.F.);
#203=ORIENTED_EDGE('',*,*,#115,.F.);
#204=ORIENTED_EDGE('',*,*,#143,.T.);
#205=ORIENTED_EDGE('',*,*,#142,.T.);
#206=ORIENTED_EDGE('',*,*,#141,.T.);
#207=ORIENTED_EDGE('',*,*,#143,.F.);
#208=CYLINDRICAL_SURFACE('',#242,12.5);
#209=CYLINDRICAL_SURFACE('',#261,8.00000000000002);
#210=CYLINDRICAL_SURFACE('',#267,8.50000000000001);
#211=ADVANCED_FACE('',(#25),#208,.T.);
#212=ADVANCED_FACE('',(#26),#20,.T.);
#213=ADVANCED_FACE('',(#27),#19,.T.);
#214=ADVANCED_FACE('',(#28,#15),#17,.T.);
#215=ADVANCED_FACE('',(#29),#21,.F.);
#216=ADVANCED_FACE('',(#30),#209,.F.);
#217=ADVANCED_FACE('',(#31),#22,.F.);
#218=ADVANCED_FACE('',(#32),#210,.F.);
#219=ADVANCED_FACE('',(#33),#23,.F.);
#220=ADVANCED_FACE('',(#34,#16),#18,.T.);
#221=ADVANCED_FACE('',(#35),#24,.T.);
#222=CLOSED_SHELL('',(#211,#212,#213,#214,#215,#216,#217,#218,#219,#220,
#221));
#223=DERIVED_UNIT_ELEMENT(#225,1.);
#224=DERIVED_UNIT_ELEMENT(#429,3.);
#225=(
MASS_UNIT()
NAMED_UNIT(*)
SI_UNIT($,.GRAM.)
);
#226=DERIVED_UNIT((#223,#224));
#227=MEASURE_REPRESENTATION_ITEM('density measure',
POSITIVE_RATIO_MEASURE(1.),#226);
#228=PROPERTY_DEFINITION_REPRESENTATION(#233,#230);
#229=PROPERTY_DEFINITION_REPRESENTATION(#234,#231);
#230=REPRESENTATION('material name',(#232),#426);
#231=REPRESENTATION('density',(#227),#426);
#232=DESCRIPTIVE_REPRESENTATION_ITEM('Generic','Generic');
#233=PROPERTY_DEFINITION('material property','material name',#436);
#234=PROPERTY_DEFINITION('material property','density of part',#436);
#235=DATE_TIME_ROLE('creation_date');
#236=APPLIED_DATE_AND_TIME_ASSIGNMENT(#237,#235,(#436));
#237=DATE_AND_TIME(#238,#239);
#238=CALENDAR_DATE(2019,9,7);
#239=LOCAL_TIME(15,18,1.,#240);
#240=COORDINATED_UNIVERSAL_TIME_OFFSET(0,0,.BEHIND.);
#241=AXIS2_PLACEMENT_3D('placement',#357,#277,#278);
#242=AXIS2_PLACEMENT_3D('',#358,#279,#280);
#243=AXIS2_PLACEMENT_3D('',#361,#281,#282);
#244=AXIS2_PLACEMENT_3D('',#362,#283,#284);
#245=AXIS2_PLACEMENT_3D('',#366,#286,#287);
#246=AXIS2_PLACEMENT_3D('',#367,#288,#289);
#247=AXIS2_PLACEMENT_3D('',#368,#290,#291);
#248=AXIS2_PLACEMENT_3D('',#371,#292,#293);
#249=AXIS2_PLACEMENT_3D('',#373,#294,#295);
#250=AXIS2_PLACEMENT_3D('',#375,#297,#298);
#251=AXIS2_PLACEMENT_3D('',#376,#299,#300);
#252=AXIS2_PLACEMENT_3D('',#379,#301,#302);
#253=AXIS2_PLACEMENT_3D('',#380,#303,#304);
#254=AXIS2_PLACEMENT_3D('',#381,#305,#306);
#255=AXIS2_PLACEMENT_3D('',#382,#307,#308);
#256=AXIS2_PLACEMENT_3D('',#385,#309,#310);
#257=AXIS2_PLACEMENT_3D('',#386,#311,#312);
#258=AXIS2_PLACEMENT_3D('',#387,#313,#314);
#259=AXIS2_PLACEMENT_3D('',#391,#316,#317);
#260=AXIS2_PLACEMENT_3D('',#392,#318,#319);
#261=AXIS2_PLACEMENT_3D('',#393,#320,#321);
#262=AXIS2_PLACEMENT_3D('',#397,#323,#324);
#263=AXIS2_PLACEMENT_3D('',#398,#325,#326);
#264=AXIS2_PLACEMENT_3D('',#399,#327,#328);
#265=AXIS2_PLACEMENT_3D('',#403,#330,#331);
#266=AXIS2_PLACEMENT_3D('',#404,#332,#333);
#267=AXIS2_PLACEMENT_3D('',#405,#334,#335);
#268=AXIS2_PLACEMENT_3D('',#409,#337,#338);
#269=AXIS2_PLACEMENT_3D('',#410,#339,#340);
#270=AXIS2_PLACEMENT_3D('',#411,#341,#342);
#271=AXIS2_PLACEMENT_3D('',#415,#344,#345);
#272=AXIS2_PLACEMENT_3D('',#416,#346,#347);
#273=AXIS2_PLACEMENT_3D('',#417,#348,#349);
#274=AXIS2_PLACEMENT_3D('',#420,#350,#351);
#275=AXIS2_PLACEMENT_3D('',#421,#352,#353);
#276=AXIS2_PLACEMENT_3D('',#422,#354,#355);
#277=DIRECTION('axis',(0.,0.,1.));
#278=DIRECTION('refdir',(1.,0.,0.));
#279=DIRECTION('center_axis',(1.,-1.24368306713148E-16,0.));
#280=DIRECTION('ref_axis',(0.,1.,0.));
#281=DIRECTION('center_axis',(1.,-1.24368306713148E-16,0.));
#282=DIRECTION('ref_axis',(0.,0.,-1.));
#283=DIRECTION('center_axis',(1.,-1.24368306713148E-16,0.));
#284=DIRECTION('ref_axis',(0.,0.,-1.));
#285=DIRECTION('',(-1.,1.24368306713148E-16,0.));
#286=DIRECTION('center_axis',(1.,-1.24368306713148E-16,0.));
#287=DIRECTION('ref_axis',(0.,0.,-1.));
#288=DIRECTION('center_axis',(1.,-1.24368306713148E-16,0.));
#289=DIRECTION('ref_axis',(0.,0.,-1.));
#290=DIRECTION('center_axis',(-1.,1.24368306713148E-16,0.));
#291=DIRECTION('ref_axis',(0.,1.,0.));
#292=DIRECTION('center_axis',(1.,-1.24368306713148E-16,0.));
#293=DIRECTION('ref_axis',(0.,0.,-1.));
#294=DIRECTION('center_axis',(1.,-1.24368306713148E-16,0.));
#295=DIRECTION('ref_axis',(0.,0.,-1.));
#296=DIRECTION('',(-0.996917333733128,-0.0784590957278445,-9.60846804471007E-18));
#297=DIRECTION('center_axis',(1.,-1.24368306713148E-16,0.));
#298=DIRECTION('ref_axis',(0.,0.,-1.));
#299=DIRECTION('center_axis',(1.,-1.24368306713148E-16,0.));
#300=DIRECTION('ref_axis',(0.,0.,-1.));
#301=DIRECTION('center_axis',(1.,-1.24368306713148E-16,0.));
#302=DIRECTION('ref_axis',(0.,0.,-1.));
#303=DIRECTION('center_axis',(1.,-1.24368306713148E-16,0.));
#304=DIRECTION('ref_axis',(0.,0.,-1.));
#305=DIRECTION('center_axis',(-1.24368306713148E-16,-1.,-1.22464679914735E-16));
#306=DIRECTION('ref_axis',(0.,-1.22464679914735E-16,1.));
#307=DIRECTION('center_axis',(1.,-1.24368306713148E-16,0.));
#308=DIRECTION('ref_axis',(0.,0.,-1.));
#309=DIRECTION('center_axis',(1.,-1.24368306713148E-16,0.));
#310=DIRECTION('ref_axis',(0.,0.,-1.));
#311=DIRECTION('center_axis',(1.,-1.24368306713148E-16,0.));
#312=DIRECTION('ref_axis',(0.,0.,-1.));
#313=DIRECTION('center_axis',(1.,-1.24368306713148E-16,0.));
#314=DIRECTION('ref_axis',(0.,1.,0.));
#315=DIRECTION('',(-0.866025403784439,0.499999999999999,6.12323399573675E-17));
#316=DIRECTION('center_axis',(1.,-1.24368306713148E-16,0.));
#317=DIRECTION('ref_axis',(0.,0.,-1.));
#318=DIRECTION('center_axis',(1.,-1.24368306713148E-16,0.));
#319=DIRECTION('ref_axis',(0.,0.,-1.));
#320=DIRECTION('center_axis',(1.,-1.24368306713148E-16,0.));
#321=DIRECTION('ref_axis',(0.,1.,0.));
#322=DIRECTION('',(-1.,1.24368306713148E-16,0.));
#323=DIRECTION('center_axis',(1.,-1.24368306713148E-16,0.));
#324=DIRECTION('ref_axis',(0.,0.,-1.));
#325=DIRECTION('center_axis',(1.,-1.24368306713148E-16,0.));
#326=DIRECTION('ref_axis',(0.,0.,-1.));
#327=DIRECTION('center_axis',(-1.,1.24368306713148E-16,0.));
#328=DIRECTION('ref_axis',(0.,1.,0.));
#329=DIRECTION('',(-0.500000000000089,-0.866025403784387,-1.06057523872484E-16));
#330=DIRECTION('center_axis',(1.,-1.24368306713148E-16,0.));
#331=DIRECTION('ref_axis',(0.,0.,-1.));
#332=DIRECTION('center_axis',(1.,-1.24368306713148E-16,0.));
#333=DIRECTION('ref_axis',(0.,0.,-1.));
#334=DIRECTION('center_axis',(1.,-1.24368306713148E-16,0.));
#335=DIRECTION('ref_axis',(0.,1.,0.));
#336=DIRECTION('',(-1.,1.24368306713148E-16,0.));
#337=DIRECTION('center_axis',(1.,-1.24368306713148E-16,0.));
#338=DIRECTION('ref_axis',(0.,0.,-1.));
#339=DIRECTION('center_axis',(1.,-1.24368306713148E-16,0.));
#340=DIRECTION('ref_axis',(0.,0.,-1.));
#341=DIRECTION('center_axis',(-1.,1.24368306713148E-16,0.));
#342=DIRECTION('ref_axis',(0.,1.,0.));
#343=DIRECTION('',(-0.866025403784438,-0.500000000000001,-6.12323399573677E-17));
#344=DIRECTION('center_axis',(1.,-1.24368306713148E-16,0.));
#345=DIRECTION('ref_axis',(0.,0.,-1.));
#346=DIRECTION('center_axis',(1.,-1.24368306713148E-16,0.));
#347=DIRECTION('ref_axis',(0.,0.,-1.));
#348=DIRECTION('center_axis',(-1.,1.24368306713148E-16,0.));
#349=DIRECTION('ref_axis',(0.,0.,1.));
#350=DIRECTION('center_axis',(1.,-1.24368306713148E-16,0.));
#351=DIRECTION('ref_axis',(0.,0.,-1.));
#352=DIRECTION('center_axis',(1.,-1.24368306713148E-16,0.));
#353=DIRECTION('ref_axis',(0.,0.,-1.));
#354=DIRECTION('center_axis',(1.,-1.24368306713148E-16,0.));
#355=DIRECTION('ref_axis',(0.,1.,0.));
#356=DIRECTION('',(-0.707106781186546,0.707106781186549,8.65956056235495E-17));
#357=CARTESIAN_POINT('',(0.,0.,0.));
#358=CARTESIAN_POINT('Origin',(70.970346447869,-6.60601576531665E-15,0.));
#359=CARTESIAN_POINT('',(140.940692895738,12.5,0.));
#360=CARTESIAN_POINT('',(140.940692895738,-12.5,-1.53080849893419E-15));
#361=CARTESIAN_POINT('Origin',(140.940692895738,-1.53081092731705E-14,0.));
#362=CARTESIAN_POINT('Origin',(140.940692895738,-1.53081092731705E-14,0.));
#363=CARTESIAN_POINT('',(1.00000000000003,-12.5,-1.53080849893419E-15));
#364=CARTESIAN_POINT('',(70.970346447869,-12.5,-1.53080849893419E-15));
#365=CARTESIAN_POINT('',(1.00000000000004,12.5,0.));
#366=CARTESIAN_POINT('Origin',(1.00000000000003,2.09607774253717E-15,0.));
#367=CARTESIAN_POINT('Origin',(1.00000000000003,2.09607774253717E-15,0.));
#368=CARTESIAN_POINT('Origin',(150.009575995733,-1.64359909080963E-14,0.));
#369=CARTESIAN_POINT('',(159.078459095728,11.0725268420749,0.));
#370=CARTESIAN_POINT('',(159.078459095728,-1.89198659985842E-14,11.0725268420749));
#371=CARTESIAN_POINT('Origin',(159.078459095728,-1.75638725430222E-14,0.));
#372=CARTESIAN_POINT('',(159.078459095728,-11.072526842075,-1.35599345556202E-15));
#373=CARTESIAN_POINT('Origin',(159.078459095728,-1.75638725430222E-14,0.));
#374=CARTESIAN_POINT('',(150.009575995733,-11.7862634210375,-1.44340097724811E-15));
#375=CARTESIAN_POINT('Origin',(159.078459095728,-1.75638725430222E-14,0.));
#376=CARTESIAN_POINT('Origin',(159.,-1.75541147181403E-14,0.));
#377=CARTESIAN_POINT('',(160.,10.0756095083418,0.));
#378=CARTESIAN_POINT('',(160.,-1.89123893182384E-14,10.0756095083418));
#379=CARTESIAN_POINT('Origin',(160.,-1.76784830248534E-14,0.));
#380=CARTESIAN_POINT('Origin',(160.,-1.76784830248534E-14,0.));
#381=CARTESIAN_POINT('Origin',(159.,-1.87880210115252E-14,10.0756095083418));
#382=CARTESIAN_POINT('Origin',(160.,8.86602540378444,0.));
#383=CARTESIAN_POINT('',(160.,8.86602540378444,0.));
#384=CARTESIAN_POINT('',(160.,-8.86602540378447,-1.08577496319038E-15));
#385=CARTESIAN_POINT('Origin',(160.,-1.76784830248534E-14,0.));
#386=CARTESIAN_POINT('Origin',(160.,-1.76784830248534E-14,0.));
#387=CARTESIAN_POINT('Origin',(159.25,-1.75852067948186E-14,0.));
#388=CARTESIAN_POINT('',(158.5,-8.00000000000004,-9.79717439317885E-16));
#389=CARTESIAN_POINT('',(159.25,-8.43301270189226,-1.03274620125413E-15));
#390=CARTESIAN_POINT('',(158.5,8.00000000000001,0.));
#391=CARTESIAN_POINT('Origin',(158.5,-1.74919305647837E-14,0.));
#392=CARTESIAN_POINT('Origin',(158.5,-1.74919305647837E-14,0.));
#393=CARTESIAN_POINT('Origin',(139.894337567297,-1.5177975832752E-14,0.));
#394=CARTESIAN_POINT('',(121.288675134595,-8.00000000000003,-9.79717439317885E-16));
#395=CARTESIAN_POINT('',(139.894337567297,-8.00000000000003,-9.79717439317885E-16));
#396=CARTESIAN_POINT('',(121.288675134595,8.,0.));
#397=CARTESIAN_POINT('Origin',(121.288675134595,-1.28640211007204E-14,0.));
#398=CARTESIAN_POINT('Origin',(121.288675134595,-1.28640211007204E-14,0.));
#399=CARTESIAN_POINT('Origin',(121.144337567297,-1.28460700818805E-14,0.));
#400=CARTESIAN_POINT('',(121.,-8.50000000000003,-1.04094977927525E-15));
#401=CARTESIAN_POINT('',(121.144337567297,-8.25000000000003,-1.01033360929657E-15));
#402=CARTESIAN_POINT('',(121.,8.5,0.));
#403=CARTESIAN_POINT('Origin',(121.,-1.28281190630406E-14,0.));
#404=CARTESIAN_POINT('Origin',(121.,-1.28281190630406E-14,0.));
#405=CARTESIAN_POINT('Origin',(60.75,-5.33492858357345E-15,0.));
#406=CARTESIAN_POINT('',(0.500000000000034,-8.50000000000001,-1.04094977927525E-15));
#407=CARTESIAN_POINT('',(60.75,-8.50000000000001,-1.04094977927525E-15));
#408=CARTESIAN_POINT('',(0.500000000000036,8.5,0.));
#409=CARTESIAN_POINT('Origin',(0.500000000000035,2.15826189589374E-15,0.));
#410=CARTESIAN_POINT('Origin',(0.500000000000035,2.15826189589374E-15,0.));
#411=CARTESIAN_POINT('Origin',(0.250000000000035,2.18935397257203E-15,0.));
#412=CARTESIAN_POINT('',(3.34107741473133E-14,-8.78867513459481,-1.07630228723275E-15));
#413=CARTESIAN_POINT('',(0.250000000000035,-8.64433756729741,-1.058626033254E-15));
#414=CARTESIAN_POINT('',(3.5527136788005E-14,8.78867513459482,0.));
#415=CARTESIAN_POINT('Origin',(3.44169137633799E-14,2.22044604925031E-15,
0.));
#416=CARTESIAN_POINT('Origin',(3.44169137633799E-14,2.22044604925031E-15,
0.));
#417=CARTESIAN_POINT('Origin',(3.5527136788005E-14,11.5,0.));
#418=CARTESIAN_POINT('',(3.5527136788005E-14,11.5,0.));
#419=CARTESIAN_POINT('',(3.27515792264421E-14,-11.5,-1.40834381901946E-15));
#420=CARTESIAN_POINT('Origin',(3.40699690681845E-14,2.22044604925031E-15,
0.));
#421=CARTESIAN_POINT('Origin',(3.40699690681845E-14,2.22044604925031E-15,
0.));
#422=CARTESIAN_POINT('Origin',(0.500000000000034,2.15826189589374E-15,0.));
#423=CARTESIAN_POINT('',(0.500000000000034,-12.,-1.46957615897682E-15));
#424=UNCERTAINTY_MEASURE_WITH_UNIT(LENGTH_MEASURE(0.01),#428,
'DISTANCE_ACCURACY_VALUE',
'Maximum model space distance between geometric entities at asserted c
onnectivities');
#425=UNCERTAINTY_MEASURE_WITH_UNIT(LENGTH_MEASURE(0.01),#428,
'DISTANCE_ACCURACY_VALUE',
'Maximum model space distance between geometric entities at asserted c
onnectivities');
#426=(
GEOMETRIC_REPRESENTATION_CONTEXT(3)
GLOBAL_UNCERTAINTY_ASSIGNED_CONTEXT((#424))
GLOBAL_UNIT_ASSIGNED_CONTEXT((#428,#430,#431))
REPRESENTATION_CONTEXT('','3D')
);
#427=(
GEOMETRIC_REPRESENTATION_CONTEXT(3)
GLOBAL_UNCERTAINTY_ASSIGNED_CONTEXT((#425))
GLOBAL_UNIT_ASSIGNED_CONTEXT((#428,#430,#431))
REPRESENTATION_CONTEXT('','3D')
);
#428=(
LENGTH_UNIT()
NAMED_UNIT(*)
SI_UNIT(.MILLI.,.METRE.)
);
#429=(
LENGTH_UNIT()
NAMED_UNIT(*)
SI_UNIT(.CENTI.,.METRE.)
);
#430=(
NAMED_UNIT(*)
PLANE_ANGLE_UNIT()
SI_UNIT($,.RADIAN.)
);
#431=(
NAMED_UNIT(*)
SI_UNIT($,.STERADIAN.)
SOLID_ANGLE_UNIT()
);
#432=SHAPE_DEFINITION_REPRESENTATION(#433,#434);
#433=PRODUCT_DEFINITION_SHAPE('',$,#436);
#434=SHAPE_REPRESENTATION('',(#241),#426);
#435=PRODUCT_DEFINITION_CONTEXT('part definition',#440,'design');
#436=PRODUCT_DEFINITION('S25-SD16-160','S25-SD16-160',#437,#435);
#437=PRODUCT_DEFINITION_FORMATION('',$,#442);
#438=PRODUCT_RELATED_PRODUCT_CATEGORY('S25-SD16-160','S25-SD16-160',(#442));
#439=APPLICATION_PROTOCOL_DEFINITION('international standard',
'automotive_design',2009,#440);
#440=APPLICATION_CONTEXT(
'Core Data for Automotive Mechanical Design Process');
#441=PRODUCT_CONTEXT('part definition',#440,'mechanical');
#442=PRODUCT('S25-SD16-160','S25-SD16-160',$,(#441));
#443=PRESENTATION_STYLE_ASSIGNMENT((#444));
#444=SURFACE_STYLE_USAGE(.BOTH.,#447);
#445=SURFACE_STYLE_RENDERING_WITH_PROPERTIES($,#451,(#446));
#446=SURFACE_STYLE_TRANSPARENT(0.);
#447=SURFACE_SIDE_STYLE('',(#448,#445));
#448=SURFACE_STYLE_FILL_AREA(#449);
#449=FILL_AREA_STYLE('',(#450));
#450=FILL_AREA_STYLE_COLOUR('',#451);
#451=COLOUR_RGB('',0.749019607843137,0.749019607843137,0.749019607843137);
ENDSEC;
END-ISO-10303-21;
