ISO-10303-21;
HEADER;
/* Generated by software containing ST-Developer
 * from STEP Tools, Inc. (www.steptools.com) 
 */

FILE_DESCRIPTION(
/* description */ (''),
/* implementation_level */ '2;1');

FILE_NAME(
/* name */ 'C:\\Users\\ldfli\\OneDrive\\Documents\\Models\\S25-SD12-16
0.stp',
/* time_stamp */ '2019-07-09T10:41:26-05:00',
/* author */ ('ldfli'),
/* organization */ (''),
/* preprocessor_version */ 'ST-DEVELOPER v18',
/* originating_system */ 'Autodesk Inventor LT',
/* authorisation */ '');

FILE_SCHEMA (('AUTOMOTIVE_DESIGN { 1 0 10303 214 3 1 1 }'));
ENDSEC;

DATA;
#10=MECHANICAL_DESIGN_GEOMETRIC_PRESENTATION_REPRESENTATION('',(#13),#427);
#11=SHAPE_REPRESENTATION_RELATIONSHIP('SRR','None',#434,#12);
#12=ADVANCED_BREP_SHAPE_REPRESENTATION('',(#14),#426);
#13=STYLED_ITEM('',(#443),#14);
#14=MANIFOLD_SOLID_BREP('Solid1',#222);
#15=TOROIDAL_SURFACE('',#263,9.07560950834181,0.999999999999992);
#16=FACE_BOUND('',#39,.T.);
#17=FACE_BOUND('',#45,.T.);
#18=PLANE('',#250);
#19=PLANE('',#267);
#20=CONICAL_SURFACE('',#247,7.14433756729741,0.523598775598299);
#21=CONICAL_SURFACE('',#253,12.,0.78539816339745);
#22=CONICAL_SURFACE('',#259,11.2862634210375,0.0785398163397446);
#23=CONICAL_SURFACE('',#270,6.28867513459484,0.523598775598299);
#24=CONICAL_SURFACE('',#276,6.50000000000002,1.04719755119645);
#25=FACE_OUTER_BOUND('',#36,.T.);
#26=FACE_OUTER_BOUND('',#37,.T.);
#27=FACE_OUTER_BOUND('',#38,.T.);
#28=FACE_OUTER_BOUND('',#40,.T.);
#29=FACE_OUTER_BOUND('',#41,.T.);
#30=FACE_OUTER_BOUND('',#42,.T.);
#31=FACE_OUTER_BOUND('',#43,.T.);
#32=FACE_OUTER_BOUND('',#44,.T.);
#33=FACE_OUTER_BOUND('',#46,.T.);
#34=FACE_OUTER_BOUND('',#47,.T.);
#35=FACE_OUTER_BOUND('',#48,.T.);
#36=EDGE_LOOP('',(#144,#145,#146,#147,#148,#149));
#37=EDGE_LOOP('',(#150,#151,#152,#153,#154,#155));
#38=EDGE_LOOP('',(#156,#157));
#39=EDGE_LOOP('',(#158,#159));
#40=EDGE_LOOP('',(#160,#161,#162,#163,#164,#165));
#41=EDGE_LOOP('',(#166,#167,#168,#169,#170,#171));
#42=EDGE_LOOP('',(#172,#173,#174,#175,#176,#177,#178));
#43=EDGE_LOOP('',(#179,#180,#181,#182,#183,#184,#185));
#44=EDGE_LOOP('',(#186,#187));
#45=EDGE_LOOP('',(#188,#189));
#46=EDGE_LOOP('',(#190,#191,#192,#193,#194,#195));
#47=EDGE_LOOP('',(#196,#197,#198,#199,#200,#201));
#48=EDGE_LOOP('',(#202,#203,#204,#205,#206,#207));
#49=LINE('',#363,#57);
#50=LINE('',#370,#58);
#51=LINE('',#384,#59);
#52=LINE('',#390,#60);
#53=LINE('',#397,#61);
#54=LINE('',#412,#62);
#55=LINE('',#418,#63);
#56=LINE('',#423,#64);
#57=VECTOR('',#283,7.00000000000001);
#58=VECTOR('',#292,7.14433756729741);
#59=VECTOR('',#309,12.);
#60=VECTOR('',#316,12.5);
#61=VECTOR('',#323,11.2862634210375);
#62=VECTOR('',#342,6.28867513459484);
#63=VECTOR('',#349,6.00000000000002);
#64=VECTOR('',#356,6.50000000000002);
#65=CIRCLE('',#243,7.00000000000002);
#66=CIRCLE('',#244,7.);
#67=CIRCLE('',#245,7.);
#68=CIRCLE('',#246,7.00000000000002);
#69=CIRCLE('',#248,7.28867513459481);
#70=CIRCLE('',#249,7.28867513459481);
#71=CIRCLE('',#251,11.5);
#72=CIRCLE('',#252,11.5);
#73=CIRCLE('',#254,12.5);
#74=CIRCLE('',#255,12.5);
#75=CIRCLE('',#257,12.5);
#76=CIRCLE('',#258,12.5);
#77=CIRCLE('',#260,10.0725268420749);
#78=CIRCLE('',#261,10.0725268420749);
#79=CIRCLE('',#262,10.0725268420749);
#80=CIRCLE('',#264,9.07560950834181);
#81=CIRCLE('',#265,9.07560950834181);
#82=CIRCLE('',#266,0.999999999999992);
#83=CIRCLE('',#268,6.57735026918965);
#84=CIRCLE('',#269,6.57735026918965);
#85=CIRCLE('',#271,6.00000000000002);
#86=CIRCLE('',#272,6.00000000000002);
#87=CIRCLE('',#274,6.00000000000002);
#88=CIRCLE('',#275,6.00000000000002);
#89=VERTEX_POINT('',#359);
#90=VERTEX_POINT('',#360);
#91=VERTEX_POINT('',#362);
#92=VERTEX_POINT('',#364);
#93=VERTEX_POINT('',#369);
#94=VERTEX_POINT('',#371);
#95=VERTEX_POINT('',#375);
#96=VERTEX_POINT('',#376);
#97=VERTEX_POINT('',#380);
#98=VERTEX_POINT('',#381);
#99=VERTEX_POINT('',#386);
#100=VERTEX_POINT('',#387);
#101=VERTEX_POINT('',#392);
#102=VERTEX_POINT('',#393);
#103=VERTEX_POINT('',#395);
#104=VERTEX_POINT('',#400);
#105=VERTEX_POINT('',#401);
#106=VERTEX_POINT('',#406);
#107=VERTEX_POINT('',#407);
#108=VERTEX_POINT('',#411);
#109=VERTEX_POINT('',#413);
#110=VERTEX_POINT('',#417);
#111=VERTEX_POINT('',#419);
#112=EDGE_CURVE('',#89,#90,#65,.T.);
#113=EDGE_CURVE('',#90,#91,#49,.T.);
#114=EDGE_CURVE('',#92,#91,#66,.T.);
#115=EDGE_CURVE('',#91,#92,#67,.T.);
#116=EDGE_CURVE('',#90,#89,#68,.T.);
#117=EDGE_CURVE('',#91,#93,#50,.T.);
#118=EDGE_CURVE('',#94,#93,#69,.T.);
#119=EDGE_CURVE('',#93,#94,#70,.T.);
#120=EDGE_CURVE('',#95,#96,#71,.T.);
#121=EDGE_CURVE('',#96,#95,#72,.T.);
#122=EDGE_CURVE('',#97,#98,#73,.T.);
#123=EDGE_CURVE('',#98,#97,#74,.T.);
#124=EDGE_CURVE('',#98,#96,#51,.T.);
#125=EDGE_CURVE('',#99,#100,#75,.T.);
#126=EDGE_CURVE('',#100,#99,#76,.T.);
#127=EDGE_CURVE('',#100,#98,#52,.T.);
#128=EDGE_CURVE('',#101,#102,#77,.T.);
#129=EDGE_CURVE('',#103,#101,#78,.T.);
#130=EDGE_CURVE('',#103,#100,#53,.T.);
#131=EDGE_CURVE('',#102,#103,#79,.T.);
#132=EDGE_CURVE('',#104,#105,#80,.T.);
#133=EDGE_CURVE('',#105,#104,#81,.T.);
#134=EDGE_CURVE('',#105,#102,#82,.T.);
#135=EDGE_CURVE('',#106,#107,#83,.T.);
#136=EDGE_CURVE('',#107,#106,#84,.T.);
#137=EDGE_CURVE('',#107,#108,#54,.T.);
#138=EDGE_CURVE('',#109,#108,#85,.T.);
#139=EDGE_CURVE('',#108,#109,#86,.T.);
#140=EDGE_CURVE('',#108,#110,#55,.T.);
#141=EDGE_CURVE('',#111,#110,#87,.T.);
#142=EDGE_CURVE('',#110,#111,#88,.T.);
#143=EDGE_CURVE('',#110,#90,#56,.T.);
#144=ORIENTED_EDGE('',*,*,#112,.T.);
#145=ORIENTED_EDGE('',*,*,#113,.T.);
#146=ORIENTED_EDGE('',*,*,#114,.F.);
#147=ORIENTED_EDGE('',*,*,#115,.F.);
#148=ORIENTED_EDGE('',*,*,#113,.F.);
#149=ORIENTED_EDGE('',*,*,#116,.T.);
#150=ORIENTED_EDGE('',*,*,#114,.T.);
#151=ORIENTED_EDGE('',*,*,#117,.T.);
#152=ORIENTED_EDGE('',*,*,#118,.F.);
#153=ORIENTED_EDGE('',*,*,#119,.F.);
#154=ORIENTED_EDGE('',*,*,#117,.F.);
#155=ORIENTED_EDGE('',*,*,#115,.T.);
#156=ORIENTED_EDGE('',*,*,#120,.F.);
#157=ORIENTED_EDGE('',*,*,#121,.F.);
#158=ORIENTED_EDGE('',*,*,#118,.T.);
#159=ORIENTED_EDGE('',*,*,#119,.T.);
#160=ORIENTED_EDGE('',*,*,#122,.F.);
#161=ORIENTED_EDGE('',*,*,#123,.F.);
#162=ORIENTED_EDGE('',*,*,#124,.T.);
#163=ORIENTED_EDGE('',*,*,#121,.T.);
#164=ORIENTED_EDGE('',*,*,#120,.T.);
#165=ORIENTED_EDGE('',*,*,#124,.F.);
#166=ORIENTED_EDGE('',*,*,#125,.F.);
#167=ORIENTED_EDGE('',*,*,#126,.F.);
#168=ORIENTED_EDGE('',*,*,#127,.T.);
#169=ORIENTED_EDGE('',*,*,#123,.T.);
#170=ORIENTED_EDGE('',*,*,#122,.T.);
#171=ORIENTED_EDGE('',*,*,#127,.F.);
#172=ORIENTED_EDGE('',*,*,#128,.F.);
#173=ORIENTED_EDGE('',*,*,#129,.F.);
#174=ORIENTED_EDGE('',*,*,#130,.T.);
#175=ORIENTED_EDGE('',*,*,#126,.T.);
#176=ORIENTED_EDGE('',*,*,#125,.T.);
#177=ORIENTED_EDGE('',*,*,#130,.F.);
#178=ORIENTED_EDGE('',*,*,#131,.F.);
#179=ORIENTED_EDGE('',*,*,#132,.F.);
#180=ORIENTED_EDGE('',*,*,#133,.F.);
#181=ORIENTED_EDGE('',*,*,#134,.T.);
#182=ORIENTED_EDGE('',*,*,#131,.T.);
#183=ORIENTED_EDGE('',*,*,#129,.T.);
#184=ORIENTED_EDGE('',*,*,#128,.T.);
#185=ORIENTED_EDGE('',*,*,#134,.F.);
#186=ORIENTED_EDGE('',*,*,#132,.T.);
#187=ORIENTED_EDGE('',*,*,#133,.T.);
#188=ORIENTED_EDGE('',*,*,#135,.F.);
#189=ORIENTED_EDGE('',*,*,#136,.F.);
#190=ORIENTED_EDGE('',*,*,#135,.T.);
#191=ORIENTED_EDGE('',*,*,#137,.T.);
#192=ORIENTED_EDGE('',*,*,#138,.F.);
#193=ORIENTED_EDGE('',*,*,#139,.F.);
#194=ORIENTED_EDGE('',*,*,#137,.F.);
#195=ORIENTED_EDGE('',*,*,#136,.T.);
#196=ORIENTED_EDGE('',*,*,#138,.T.);
#197=ORIENTED_EDGE('',*,*,#140,.T.);
#198=ORIENTED_EDGE('',*,*,#141,.F.);
#199=ORIENTED_EDGE('',*,*,#142,.F.);
#200=ORIENTED_EDGE('',*,*,#140,.F.);
#201=ORIENTED_EDGE('',*,*,#139,.T.);
#202=ORIENTED_EDGE('',*,*,#141,.T.);
#203=ORIENTED_EDGE('',*,*,#143,.T.);
#204=ORIENTED_EDGE('',*,*,#112,.F.);
#205=ORIENTED_EDGE('',*,*,#116,.F.);
#206=ORIENTED_EDGE('',*,*,#143,.F.);
#207=ORIENTED_EDGE('',*,*,#142,.T.);
#208=CYLINDRICAL_SURFACE('',#242,7.00000000000001);
#209=CYLINDRICAL_SURFACE('',#256,12.5);
#210=CYLINDRICAL_SURFACE('',#273,6.00000000000002);
#211=ADVANCED_FACE('',(#25),#208,.F.);
#212=ADVANCED_FACE('',(#26),#20,.F.);
#213=ADVANCED_FACE('',(#27,#16),#18,.T.);
#214=ADVANCED_FACE('',(#28),#21,.T.);
#215=ADVANCED_FACE('',(#29),#209,.T.);
#216=ADVANCED_FACE('',(#30),#22,.T.);
#217=ADVANCED_FACE('',(#31),#15,.T.);
#218=ADVANCED_FACE('',(#32,#17),#19,.T.);
#219=ADVANCED_FACE('',(#33),#23,.F.);
#220=ADVANCED_FACE('',(#34),#210,.F.);
#221=ADVANCED_FACE('',(#35),#24,.F.);
#222=CLOSED_SHELL('',(#211,#212,#213,#214,#215,#216,#217,#218,#219,#220,
#221));
#223=DERIVED_UNIT_ELEMENT(#225,1.);
#224=DERIVED_UNIT_ELEMENT(#429,3.);
#225=(
MASS_UNIT()
NAMED_UNIT(*)
SI_UNIT($,.GRAM.)
);
#226=DERIVED_UNIT((#223,#224));
#227=MEASURE_REPRESENTATION_ITEM('density measure',
POSITIVE_RATIO_MEASURE(1.),#226);
#228=PROPERTY_DEFINITION_REPRESENTATION(#233,#230);
#229=PROPERTY_DEFINITION_REPRESENTATION(#234,#231);
#230=REPRESENTATION('material name',(#232),#426);
#231=REPRESENTATION('density',(#227),#426);
#232=DESCRIPTIVE_REPRESENTATION_ITEM('Generic','Generic');
#233=PROPERTY_DEFINITION('material property','material name',#436);
#234=PROPERTY_DEFINITION('material property','density of part',#436);
#235=DATE_TIME_ROLE('creation_date');
#236=APPLIED_DATE_AND_TIME_ASSIGNMENT(#237,#235,(#436));
#237=DATE_AND_TIME(#238,#239);
#238=CALENDAR_DATE(2019,9,7);
#239=LOCAL_TIME(15,18,1.,#240);
#240=COORDINATED_UNIVERSAL_TIME_OFFSET(0,0,.BEHIND.);
#241=AXIS2_PLACEMENT_3D('placement',#357,#277,#278);
#242=AXIS2_PLACEMENT_3D('',#358,#279,#280);
#243=AXIS2_PLACEMENT_3D('',#361,#281,#282);
#244=AXIS2_PLACEMENT_3D('',#365,#284,#285);
#245=AXIS2_PLACEMENT_3D('',#366,#286,#287);
#246=AXIS2_PLACEMENT_3D('',#367,#288,#289);
#247=AXIS2_PLACEMENT_3D('',#368,#290,#291);
#248=AXIS2_PLACEMENT_3D('',#372,#293,#294);
#249=AXIS2_PLACEMENT_3D('',#373,#295,#296);
#250=AXIS2_PLACEMENT_3D('',#374,#297,#298);
#251=AXIS2_PLACEMENT_3D('',#377,#299,#300);
#252=AXIS2_PLACEMENT_3D('',#378,#301,#302);
#253=AXIS2_PLACEMENT_3D('',#379,#303,#304);
#254=AXIS2_PLACEMENT_3D('',#382,#305,#306);
#255=AXIS2_PLACEMENT_3D('',#383,#307,#308);
#256=AXIS2_PLACEMENT_3D('',#385,#310,#311);
#257=AXIS2_PLACEMENT_3D('',#388,#312,#313);
#258=AXIS2_PLACEMENT_3D('',#389,#314,#315);
#259=AXIS2_PLACEMENT_3D('',#391,#317,#318);
#260=AXIS2_PLACEMENT_3D('',#394,#319,#320);
#261=AXIS2_PLACEMENT_3D('',#396,#321,#322);
#262=AXIS2_PLACEMENT_3D('',#398,#324,#325);
#263=AXIS2_PLACEMENT_3D('',#399,#326,#327);
#264=AXIS2_PLACEMENT_3D('',#402,#328,#329);
#265=AXIS2_PLACEMENT_3D('',#403,#330,#331);
#266=AXIS2_PLACEMENT_3D('',#404,#332,#333);
#267=AXIS2_PLACEMENT_3D('',#405,#334,#335);
#268=AXIS2_PLACEMENT_3D('',#408,#336,#337);
#269=AXIS2_PLACEMENT_3D('',#409,#338,#339);
#270=AXIS2_PLACEMENT_3D('',#410,#340,#341);
#271=AXIS2_PLACEMENT_3D('',#414,#343,#344);
#272=AXIS2_PLACEMENT_3D('',#415,#345,#346);
#273=AXIS2_PLACEMENT_3D('',#416,#347,#348);
#274=AXIS2_PLACEMENT_3D('',#420,#350,#351);
#275=AXIS2_PLACEMENT_3D('',#421,#352,#353);
#276=AXIS2_PLACEMENT_3D('',#422,#354,#355);
#277=DIRECTION('axis',(0.,0.,1.));
#278=DIRECTION('refdir',(1.,0.,0.));
#279=DIRECTION('center_axis',(1.,-1.24368306713148E-16,0.));
#280=DIRECTION('ref_axis',(0.,1.,0.));
#281=DIRECTION('center_axis',(1.,-1.24368306713148E-16,0.));
#282=DIRECTION('ref_axis',(0.,0.,-1.));
#283=DIRECTION('',(-1.,1.24368306713148E-16,0.));
#284=DIRECTION('center_axis',(1.,-1.24368306713148E-16,0.));
#285=DIRECTION('ref_axis',(0.,0.,-1.));
#286=DIRECTION('center_axis',(1.,-1.24368306713148E-16,0.));
#287=DIRECTION('ref_axis',(0.,0.,-1.));
#288=DIRECTION('center_axis',(1.,-1.24368306713148E-16,0.));
#289=DIRECTION('ref_axis',(0.,0.,-1.));
#290=DIRECTION('center_axis',(-1.,1.24368306713148E-16,0.));
#291=DIRECTION('ref_axis',(0.,1.,0.));
#292=DIRECTION('',(-0.866025403784438,-0.5,-6.12323399573677E-17));
#293=DIRECTION('center_axis',(1.,-1.24368306713148E-16,0.));
#294=DIRECTION('ref_axis',(0.,0.,-1.));
#295=DIRECTION('center_axis',(1.,-1.24368306713148E-16,0.));
#296=DIRECTION('ref_axis',(0.,0.,-1.));
#297=DIRECTION('center_axis',(-1.,1.24368306713148E-16,0.));
#298=DIRECTION('ref_axis',(0.,0.,1.));
#299=DIRECTION('center_axis',(1.,-1.24368306713148E-16,0.));
#300=DIRECTION('ref_axis',(0.,0.,-1.));
#301=DIRECTION('center_axis',(1.,-1.24368306713148E-16,0.));
#302=DIRECTION('ref_axis',(0.,0.,-1.));
#303=DIRECTION('center_axis',(1.,-1.24368306713148E-16,0.));
#304=DIRECTION('ref_axis',(0.,1.,0.));
#305=DIRECTION('center_axis',(1.,-1.24368306713148E-16,0.));
#306=DIRECTION('ref_axis',(0.,0.,-1.));
#307=DIRECTION('center_axis',(1.,-1.24368306713148E-16,0.));
#308=DIRECTION('ref_axis',(0.,0.,-1.));
#309=DIRECTION('',(-0.707106781186546,0.707106781186549,8.65956056235495E-17));
#310=DIRECTION('center_axis',(1.,-1.24368306713148E-16,0.));
#311=DIRECTION('ref_axis',(0.,1.,0.));
#312=DIRECTION('center_axis',(1.,-1.24368306713148E-16,0.));
#313=DIRECTION('ref_axis',(0.,0.,-1.));
#314=DIRECTION('center_axis',(1.,-1.24368306713148E-16,0.));
#315=DIRECTION('ref_axis',(0.,0.,-1.));
#316=DIRECTION('',(-1.,1.24368306713148E-16,0.));
#317=DIRECTION('center_axis',(-1.,1.24368306713148E-16,0.));
#318=DIRECTION('ref_axis',(0.,1.,0.));
#319=DIRECTION('center_axis',(1.,-1.24368306713148E-16,0.));
#320=DIRECTION('ref_axis',(0.,0.,-1.));
#321=DIRECTION('center_axis',(1.,-1.24368306713148E-16,0.));
#322=DIRECTION('ref_axis',(0.,0.,-1.));
#323=DIRECTION('',(-0.996917333733128,-0.0784590957278446,-9.60846804471009E-18));
#324=DIRECTION('center_axis',(1.,-1.24368306713148E-16,0.));
#325=DIRECTION('ref_axis',(0.,0.,-1.));
#326=DIRECTION('center_axis',(1.,-1.24368306713148E-16,0.));
#327=DIRECTION('ref_axis',(0.,0.,-1.));
#328=DIRECTION('center_axis',(1.,-1.24368306713148E-16,0.));
#329=DIRECTION('ref_axis',(0.,0.,-1.));
#330=DIRECTION('center_axis',(1.,-1.24368306713148E-16,0.));
#331=DIRECTION('ref_axis',(0.,0.,-1.));
#332=DIRECTION('center_axis',(-1.24368306713148E-16,-1.,-1.22464679914735E-16));
#333=DIRECTION('ref_axis',(0.,-1.22464679914735E-16,1.));
#334=DIRECTION('center_axis',(1.,-1.24368306713148E-16,0.));
#335=DIRECTION('ref_axis',(0.,0.,-1.));
#336=DIRECTION('center_axis',(1.,-1.24368306713148E-16,0.));
#337=DIRECTION('ref_axis',(0.,0.,-1.));
#338=DIRECTION('center_axis',(1.,-1.24368306713148E-16,0.));
#339=DIRECTION('ref_axis',(0.,0.,-1.));
#340=DIRECTION('center_axis',(1.,-1.24368306713148E-16,0.));
#341=DIRECTION('ref_axis',(0.,1.,0.));
#342=DIRECTION('',(-0.866025403784438,0.5,6.12323399573677E-17));
#343=DIRECTION('center_axis',(1.,-1.24368306713148E-16,0.));
#344=DIRECTION('ref_axis',(0.,0.,-1.));
#345=DIRECTION('center_axis',(1.,-1.24368306713148E-16,0.));
#346=DIRECTION('ref_axis',(0.,0.,-1.));
#347=DIRECTION('center_axis',(1.,-1.24368306713148E-16,0.));
#348=DIRECTION('ref_axis',(0.,1.,0.));
#349=DIRECTION('',(-1.,1.24368306713148E-16,0.));
#350=DIRECTION('center_axis',(1.,-1.24368306713148E-16,0.));
#351=DIRECTION('ref_axis',(0.,0.,-1.));
#352=DIRECTION('center_axis',(1.,-1.24368306713148E-16,0.));
#353=DIRECTION('ref_axis',(0.,0.,-1.));
#354=DIRECTION('center_axis',(-1.,1.24368306713148E-16,0.));
#355=DIRECTION('ref_axis',(0.,1.,0.));
#356=DIRECTION('',(-0.500000000000125,-0.866025403784366,-1.06057523872482E-16));
#357=CARTESIAN_POINT('',(0.,0.,0.));
#358=CARTESIAN_POINT('Origin',(61.75,-5.4592968902866E-15,0.));
#359=CARTESIAN_POINT('',(123.,7.,0.));
#360=CARTESIAN_POINT('',(123.,-7.00000000000002,-8.57252759403148E-16));
#361=CARTESIAN_POINT('Origin',(123.,-1.30768556764669E-14,0.));
#362=CARTESIAN_POINT('',(0.500000000000043,-7.00000000000001,-8.57252759403148E-16));
#363=CARTESIAN_POINT('',(61.75,-7.00000000000001,-8.57252759403148E-16));
#364=CARTESIAN_POINT('',(0.500000000000036,7.,0.));
#365=CARTESIAN_POINT('Origin',(0.500000000000043,2.15826189589374E-15,0.));
#366=CARTESIAN_POINT('Origin',(0.500000000000043,2.15826189589374E-15,0.));
#367=CARTESIAN_POINT('Origin',(123.,-1.30768556764669E-14,0.));
#368=CARTESIAN_POINT('Origin',(0.250000000000039,2.18935397257203E-15,0.));
#369=CARTESIAN_POINT('',(3.55965257270441E-14,-7.28867513459481,-8.92605267360645E-16));
#370=CARTESIAN_POINT('',(0.250000000000039,-7.14433756729741,-8.74929013381896E-16));
#371=CARTESIAN_POINT('',(3.5527136788005E-14,7.28867513459482,0.));
#372=CARTESIAN_POINT('Origin',(3.5527136788005E-14,2.22044604925031E-15,
0.));
#373=CARTESIAN_POINT('Origin',(3.5527136788005E-14,2.22044604925031E-15,
0.));
#374=CARTESIAN_POINT('Origin',(3.5527136788005E-14,11.5,0.));
#375=CARTESIAN_POINT('',(3.5527136788005E-14,11.5,0.));
#376=CARTESIAN_POINT('',(3.77475828372553E-14,-11.5,-1.40834381901945E-15));
#377=CARTESIAN_POINT('Origin',(3.5527136788005E-14,2.22044604925031E-15,
0.));
#378=CARTESIAN_POINT('Origin',(3.5527136788005E-14,2.22044604925031E-15,
0.));
#379=CARTESIAN_POINT('Origin',(0.500000000000043,2.15826189589374E-15,0.));
#380=CARTESIAN_POINT('',(1.00000000000004,12.5,0.));
#381=CARTESIAN_POINT('',(1.00000000000004,-12.5,-1.53080849893419E-15));
#382=CARTESIAN_POINT('Origin',(1.00000000000003,2.09607774253717E-15,0.));
#383=CARTESIAN_POINT('Origin',(1.00000000000003,2.09607774253717E-15,0.));
#384=CARTESIAN_POINT('',(0.500000000000043,-12.,-1.46957615897682E-15));
#385=CARTESIAN_POINT('Origin',(64.6172440797816,-5.81589118142234E-15,0.));
#386=CARTESIAN_POINT('',(128.234488159563,12.5,0.));
#387=CARTESIAN_POINT('',(128.234488159563,-12.5,-1.53080849893419E-15));
#388=CARTESIAN_POINT('Origin',(128.234488159563,-1.37278601053818E-14,0.));
#389=CARTESIAN_POINT('Origin',(128.234488159563,-1.37278601053818E-14,0.));
#390=CARTESIAN_POINT('',(64.6172440797816,-12.5,-1.53080849893419E-15));
#391=CARTESIAN_POINT('Origin',(143.656473627646,-1.5645866324202E-14,0.));
#392=CARTESIAN_POINT('',(159.078459095728,10.0725268420749,0.));
#393=CARTESIAN_POINT('',(159.078459095728,-1.87974013186695E-14,10.0725268420749));
#394=CARTESIAN_POINT('Origin',(159.078459095728,-1.75638725430222E-14,0.));
#395=CARTESIAN_POINT('',(159.078459095728,-10.072526842075,-1.23352877564729E-15));
#396=CARTESIAN_POINT('Origin',(159.078459095728,-1.75638725430222E-14,0.));
#397=CARTESIAN_POINT('',(143.656473627646,-11.2862634210375,-1.38216863729074E-15));
#398=CARTESIAN_POINT('Origin',(159.078459095728,-1.75638725430222E-14,0.));
#399=CARTESIAN_POINT('Origin',(159.,-1.75541147181403E-14,0.));
#400=CARTESIAN_POINT('',(160.,9.0756095083418,0.));
#401=CARTESIAN_POINT('',(160.,-1.87899246383236E-14,9.07560950834181));
#402=CARTESIAN_POINT('Origin',(160.,-1.76784830248534E-14,0.));
#403=CARTESIAN_POINT('Origin',(160.,-1.76784830248534E-14,0.));
#404=CARTESIAN_POINT('Origin',(159.,-1.86655563316105E-14,9.07560950834181));
#405=CARTESIAN_POINT('Origin',(160.,6.57735026918963,0.));
#406=CARTESIAN_POINT('',(160.,6.57735026918963,0.));
#407=CARTESIAN_POINT('',(160.,-6.57735026918967,-8.05493095403409E-16));
#408=CARTESIAN_POINT('Origin',(160.,-1.76784830248534E-14,0.));
#409=CARTESIAN_POINT('Origin',(160.,-1.76784830248534E-14,0.));
#410=CARTESIAN_POINT('Origin',(159.5,-1.76162988714969E-14,0.));
#411=CARTESIAN_POINT('',(159.,-6.00000000000005,-7.34788079488415E-16));
#412=CARTESIAN_POINT('',(159.5,-6.28867513459485,-7.70140587445912E-16));
#413=CARTESIAN_POINT('',(159.,6.00000000000001,0.));
#414=CARTESIAN_POINT('Origin',(159.,-1.75541147181403E-14,0.));
#415=CARTESIAN_POINT('Origin',(159.,-1.75541147181403E-14,0.));
#416=CARTESIAN_POINT('Origin',(141.288675134595,-1.53513872349834E-14,0.));
#417=CARTESIAN_POINT('',(123.57735026919,-6.00000000000003,-7.34788079488414E-16));
#418=CARTESIAN_POINT('',(141.288675134595,-6.00000000000004,-7.34788079488414E-16));
#419=CARTESIAN_POINT('',(123.57735026919,6.,0.));
#420=CARTESIAN_POINT('Origin',(123.57735026919,-1.31486597518265E-14,0.));
#421=CARTESIAN_POINT('Origin',(123.57735026919,-1.31486597518265E-14,0.));
#422=CARTESIAN_POINT('Origin',(123.288675134595,-1.31127577141467E-14,0.));
#423=CARTESIAN_POINT('',(123.288675134595,-6.50000000000003,-7.96020419445782E-16));
#424=UNCERTAINTY_MEASURE_WITH_UNIT(LENGTH_MEASURE(0.01),#428,
'DISTANCE_ACCURACY_VALUE',
'Maximum model space distance between geometric entities at asserted c
onnectivities');
#425=UNCERTAINTY_MEASURE_WITH_UNIT(LENGTH_MEASURE(0.01),#428,
'DISTANCE_ACCURACY_VALUE',
'Maximum model space distance between geometric entities at asserted c
onnectivities');
#426=(
GEOMETRIC_REPRESENTATION_CONTEXT(3)
GLOBAL_UNCERTAINTY_ASSIGNED_CONTEXT((#424))
GLOBAL_UNIT_ASSIGNED_CONTEXT((#428,#430,#431))
REPRESENTATION_CONTEXT('','3D')
);
#427=(
GEOMETRIC_REPRESENTATION_CONTEXT(3)
GLOBAL_UNCERTAINTY_ASSIGNED_CONTEXT((#425))
GLOBAL_UNIT_ASSIGNED_CONTEXT((#428,#430,#431))
REPRESENTATION_CONTEXT('','3D')
);
#428=(
LENGTH_UNIT()
NAMED_UNIT(*)
SI_UNIT(.MILLI.,.METRE.)
);
#429=(
LENGTH_UNIT()
NAMED_UNIT(*)
SI_UNIT(.CENTI.,.METRE.)
);
#430=(
NAMED_UNIT(*)
PLANE_ANGLE_UNIT()
SI_UNIT($,.RADIAN.)
);
#431=(
NAMED_UNIT(*)
SI_UNIT($,.STERADIAN.)
SOLID_ANGLE_UNIT()
);
#432=SHAPE_DEFINITION_REPRESENTATION(#433,#434);
#433=PRODUCT_DEFINITION_SHAPE('',$,#436);
#434=SHAPE_REPRESENTATION('',(#241),#426);
#435=PRODUCT_DEFINITION_CONTEXT('part definition',#440,'design');
#436=PRODUCT_DEFINITION('S25-SD12-160','S25-SD12-160',#437,#435);
#437=PRODUCT_DEFINITION_FORMATION('',$,#442);
#438=PRODUCT_RELATED_PRODUCT_CATEGORY('S25-SD12-160','S25-SD12-160',(#442));
#439=APPLICATION_PROTOCOL_DEFINITION('international standard',
'automotive_design',2009,#440);
#440=APPLICATION_CONTEXT(
'Core Data for Automotive Mechanical Design Process');
#441=PRODUCT_CONTEXT('part definition',#440,'mechanical');
#442=PRODUCT('S25-SD12-160','S25-SD12-160',$,(#441));
#443=PRESENTATION_STYLE_ASSIGNMENT((#444));
#444=SURFACE_STYLE_USAGE(.BOTH.,#447);
#445=SURFACE_STYLE_RENDERING_WITH_PROPERTIES($,#451,(#446));
#446=SURFACE_STYLE_TRANSPARENT(0.);
#447=SURFACE_SIDE_STYLE('',(#448,#445));
#448=SURFACE_STYLE_FILL_AREA(#449);
#449=FILL_AREA_STYLE('',(#450));
#450=FILL_AREA_STYLE_COLOUR('',#451);
#451=COLOUR_RGB('',0.749019607843137,0.749019607843137,0.749019607843137);
ENDSEC;
END-ISO-10303-21;
