ISO-10303-21;
HEADER;
/* Generated by software containing ST-Developer
 * from STEP Tools, Inc. (www.steptools.com) 
 */

FILE_DESCRIPTION(
/* description */ (''),
/* implementation_level */ '2;1');

FILE_NAME(
/* name */ 'C:\\Users\\ldfli\\OneDrive\\Documents\\Models\\S20-SD06-30
0.stp',
/* time_stamp */ '2019-07-09T10:37:07-05:00',
/* author */ ('ldfli'),
/* organization */ (''),
/* preprocessor_version */ 'ST-DEVELOPER v18',
/* originating_system */ 'Autodesk Inventor LT',
/* authorisation */ '');

FILE_SCHEMA (('AUTOMOTIVE_DESIGN { 1 0 10303 214 3 1 1 }'));
ENDSEC;

DATA;
#10=MECHANICAL_DESIGN_GEOMETRIC_PRESENTATION_REPRESENTATION('',(#13),#427);
#11=SHAPE_REPRESENTATION_RELATIONSHIP('SRR','None',#434,#12);
#12=ADVANCED_BREP_SHAPE_REPRESENTATION('',(#14),#426);
#13=STYLED_ITEM('',(#443),#14);
#14=MANIFOLD_SOLID_BREP('Solid1',#222);
#15=CYLINDRICAL_SURFACE('',#258,3.00000000000006);
#16=CYLINDRICAL_SURFACE('',#264,4.00000000000002);
#17=CYLINDRICAL_SURFACE('',#276,10.);
#18=FACE_BOUND('',#37,.T.);
#19=FACE_BOUND('',#44,.T.);
#20=PLANE('',#252);
#21=PLANE('',#270);
#22=TOROIDAL_SURFACE('',#248,6.07560950834183,0.999999999999992);
#23=FACE_OUTER_BOUND('',#34,.T.);
#24=FACE_OUTER_BOUND('',#35,.T.);
#25=FACE_OUTER_BOUND('',#36,.T.);
#26=FACE_OUTER_BOUND('',#38,.T.);
#27=FACE_OUTER_BOUND('',#39,.T.);
#28=FACE_OUTER_BOUND('',#40,.T.);
#29=FACE_OUTER_BOUND('',#41,.T.);
#30=FACE_OUTER_BOUND('',#42,.T.);
#31=FACE_OUTER_BOUND('',#43,.T.);
#32=FACE_OUTER_BOUND('',#45,.T.);
#33=FACE_OUTER_BOUND('',#46,.T.);
#34=EDGE_LOOP('',(#142,#143,#144,#145,#146,#147,#148));
#35=EDGE_LOOP('',(#149,#150,#151,#152,#153,#154,#155));
#36=EDGE_LOOP('',(#156,#157));
#37=EDGE_LOOP('',(#158,#159));
#38=EDGE_LOOP('',(#160,#161,#162,#163,#164,#165));
#39=EDGE_LOOP('',(#166,#167,#168,#169,#170,#171));
#40=EDGE_LOOP('',(#172,#173,#174,#175,#176,#177));
#41=EDGE_LOOP('',(#178,#179,#180,#181,#182,#183));
#42=EDGE_LOOP('',(#184,#185,#186,#187,#188,#189));
#43=EDGE_LOOP('',(#190,#191));
#44=EDGE_LOOP('',(#192,#193));
#45=EDGE_LOOP('',(#194,#195,#196,#197,#198,#199));
#46=EDGE_LOOP('',(#200,#201,#202,#203,#204,#205));
#47=LINE('',#365,#55);
#48=LINE('',#383,#56);
#49=LINE('',#389,#57);
#50=LINE('',#395,#58);
#51=LINE('',#401,#59);
#52=LINE('',#407,#60);
#53=LINE('',#421,#61);
#54=LINE('',#423,#62);
#55=VECTOR('',#285,8.5362634210375);
#56=VECTOR('',#308,3.28867513459488);
#57=VECTOR('',#315,3.00000000000006);
#58=VECTOR('',#322,3.50000000000004);
#59=VECTOR('',#329,4.00000000000002);
#60=VECTOR('',#336,4.14433756729741);
#61=VECTOR('',#353,9.49999999999999);
#62=VECTOR('',#356,10.);
#63=CIRCLE('',#243,7.07252684207497);
#64=CIRCLE('',#244,7.07252684207497);
#65=CIRCLE('',#245,10.);
#66=CIRCLE('',#246,10.);
#67=CIRCLE('',#247,7.07252684207497);
#68=CIRCLE('',#249,6.07560950834183);
#69=CIRCLE('',#250,6.07560950834183);
#70=CIRCLE('',#251,0.999999999999992);
#71=CIRCLE('',#253,3.57735026918971);
#72=CIRCLE('',#254,3.57735026918971);
#73=CIRCLE('',#256,3.00000000000006);
#74=CIRCLE('',#257,3.00000000000006);
#75=CIRCLE('',#259,3.00000000000005);
#76=CIRCLE('',#260,3.00000000000005);
#77=CIRCLE('',#262,4.00000000000003);
#78=CIRCLE('',#263,4.00000000000003);
#79=CIRCLE('',#265,4.);
#80=CIRCLE('',#266,4.);
#81=CIRCLE('',#268,4.28867513459481);
#82=CIRCLE('',#269,4.28867513459481);
#83=CIRCLE('',#271,8.99999999999999);
#84=CIRCLE('',#272,8.99999999999999);
#85=CIRCLE('',#274,9.99999999999999);
#86=CIRCLE('',#275,9.99999999999999);
#87=VERTEX_POINT('',#359);
#88=VERTEX_POINT('',#360);
#89=VERTEX_POINT('',#362);
#90=VERTEX_POINT('',#364);
#91=VERTEX_POINT('',#366);
#92=VERTEX_POINT('',#371);
#93=VERTEX_POINT('',#372);
#94=VERTEX_POINT('',#377);
#95=VERTEX_POINT('',#378);
#96=VERTEX_POINT('',#382);
#97=VERTEX_POINT('',#384);
#98=VERTEX_POINT('',#388);
#99=VERTEX_POINT('',#390);
#100=VERTEX_POINT('',#394);
#101=VERTEX_POINT('',#396);
#102=VERTEX_POINT('',#400);
#103=VERTEX_POINT('',#402);
#104=VERTEX_POINT('',#406);
#105=VERTEX_POINT('',#408);
#106=VERTEX_POINT('',#412);
#107=VERTEX_POINT('',#413);
#108=VERTEX_POINT('',#417);
#109=VERTEX_POINT('',#418);
#110=EDGE_CURVE('',#87,#88,#63,.T.);
#111=EDGE_CURVE('',#89,#87,#64,.T.);
#112=EDGE_CURVE('',#89,#90,#47,.T.);
#113=EDGE_CURVE('',#90,#91,#65,.T.);
#114=EDGE_CURVE('',#91,#90,#66,.T.);
#115=EDGE_CURVE('',#88,#89,#67,.T.);
#116=EDGE_CURVE('',#92,#93,#68,.T.);
#117=EDGE_CURVE('',#93,#92,#69,.T.);
#118=EDGE_CURVE('',#93,#88,#70,.T.);
#119=EDGE_CURVE('',#94,#95,#71,.T.);
#120=EDGE_CURVE('',#95,#94,#72,.T.);
#121=EDGE_CURVE('',#95,#96,#48,.T.);
#122=EDGE_CURVE('',#97,#96,#73,.T.);
#123=EDGE_CURVE('',#96,#97,#74,.T.);
#124=EDGE_CURVE('',#96,#98,#49,.T.);
#125=EDGE_CURVE('',#99,#98,#75,.T.);
#126=EDGE_CURVE('',#98,#99,#76,.T.);
#127=EDGE_CURVE('',#98,#100,#50,.T.);
#128=EDGE_CURVE('',#101,#100,#77,.T.);
#129=EDGE_CURVE('',#100,#101,#78,.T.);
#130=EDGE_CURVE('',#100,#102,#51,.T.);
#131=EDGE_CURVE('',#103,#102,#79,.T.);
#132=EDGE_CURVE('',#102,#103,#80,.T.);
#133=EDGE_CURVE('',#102,#104,#52,.T.);
#134=EDGE_CURVE('',#105,#104,#81,.T.);
#135=EDGE_CURVE('',#104,#105,#82,.T.);
#136=EDGE_CURVE('',#106,#107,#83,.T.);
#137=EDGE_CURVE('',#107,#106,#84,.T.);
#138=EDGE_CURVE('',#108,#109,#85,.T.);
#139=EDGE_CURVE('',#109,#108,#86,.T.);
#140=EDGE_CURVE('',#109,#107,#53,.T.);
#141=EDGE_CURVE('',#90,#109,#54,.T.);
#142=ORIENTED_EDGE('',*,*,#110,.F.);
#143=ORIENTED_EDGE('',*,*,#111,.F.);
#144=ORIENTED_EDGE('',*,*,#112,.T.);
#145=ORIENTED_EDGE('',*,*,#113,.T.);
#146=ORIENTED_EDGE('',*,*,#114,.T.);
#147=ORIENTED_EDGE('',*,*,#112,.F.);
#148=ORIENTED_EDGE('',*,*,#115,.F.);
#149=ORIENTED_EDGE('',*,*,#116,.F.);
#150=ORIENTED_EDGE('',*,*,#117,.F.);
#151=ORIENTED_EDGE('',*,*,#118,.T.);
#152=ORIENTED_EDGE('',*,*,#115,.T.);
#153=ORIENTED_EDGE('',*,*,#111,.T.);
#154=ORIENTED_EDGE('',*,*,#110,.T.);
#155=ORIENTED_EDGE('',*,*,#118,.F.);
#156=ORIENTED_EDGE('',*,*,#116,.T.);
#157=ORIENTED_EDGE('',*,*,#117,.T.);
#158=ORIENTED_EDGE('',*,*,#119,.F.);
#159=ORIENTED_EDGE('',*,*,#120,.F.);
#160=ORIENTED_EDGE('',*,*,#119,.T.);
#161=ORIENTED_EDGE('',*,*,#121,.T.);
#162=ORIENTED_EDGE('',*,*,#122,.F.);
#163=ORIENTED_EDGE('',*,*,#123,.F.);
#164=ORIENTED_EDGE('',*,*,#121,.F.);
#165=ORIENTED_EDGE('',*,*,#120,.T.);
#166=ORIENTED_EDGE('',*,*,#122,.T.);
#167=ORIENTED_EDGE('',*,*,#124,.T.);
#168=ORIENTED_EDGE('',*,*,#125,.F.);
#169=ORIENTED_EDGE('',*,*,#126,.F.);
#170=ORIENTED_EDGE('',*,*,#124,.F.);
#171=ORIENTED_EDGE('',*,*,#123,.T.);
#172=ORIENTED_EDGE('',*,*,#125,.T.);
#173=ORIENTED_EDGE('',*,*,#127,.T.);
#174=ORIENTED_EDGE('',*,*,#128,.F.);
#175=ORIENTED_EDGE('',*,*,#129,.F.);
#176=ORIENTED_EDGE('',*,*,#127,.F.);
#177=ORIENTED_EDGE('',*,*,#126,.T.);
#178=ORIENTED_EDGE('',*,*,#128,.T.);
#179=ORIENTED_EDGE('',*,*,#130,.T.);
#180=ORIENTED_EDGE('',*,*,#131,.F.);
#181=ORIENTED_EDGE('',*,*,#132,.F.);
#182=ORIENTED_EDGE('',*,*,#130,.F.);
#183=ORIENTED_EDGE('',*,*,#129,.T.);
#184=ORIENTED_EDGE('',*,*,#131,.T.);
#185=ORIENTED_EDGE('',*,*,#133,.T.);
#186=ORIENTED_EDGE('',*,*,#134,.F.);
#187=ORIENTED_EDGE('',*,*,#135,.F.);
#188=ORIENTED_EDGE('',*,*,#133,.F.);
#189=ORIENTED_EDGE('',*,*,#132,.T.);
#190=ORIENTED_EDGE('',*,*,#136,.F.);
#191=ORIENTED_EDGE('',*,*,#137,.F.);
#192=ORIENTED_EDGE('',*,*,#134,.T.);
#193=ORIENTED_EDGE('',*,*,#135,.T.);
#194=ORIENTED_EDGE('',*,*,#138,.F.);
#195=ORIENTED_EDGE('',*,*,#139,.F.);
#196=ORIENTED_EDGE('',*,*,#140,.T.);
#197=ORIENTED_EDGE('',*,*,#137,.T.);
#198=ORIENTED_EDGE('',*,*,#136,.T.);
#199=ORIENTED_EDGE('',*,*,#140,.F.);
#200=ORIENTED_EDGE('',*,*,#114,.F.);
#201=ORIENTED_EDGE('',*,*,#113,.F.);
#202=ORIENTED_EDGE('',*,*,#141,.T.);
#203=ORIENTED_EDGE('',*,*,#139,.T.);
#204=ORIENTED_EDGE('',*,*,#138,.T.);
#205=ORIENTED_EDGE('',*,*,#141,.F.);
#206=CONICAL_SURFACE('',#242,8.5362634210375,0.0785398163397445);
#207=CONICAL_SURFACE('',#255,3.28867513459488,0.52359877559828);
#208=CONICAL_SURFACE('',#261,3.50000000000004,1.04719755119649);
#209=CONICAL_SURFACE('',#267,4.14433756729741,0.523598775598299);
#210=CONICAL_SURFACE('',#273,9.49999999999999,0.785398163397448);
#211=ADVANCED_FACE('',(#23),#206,.T.);
#212=ADVANCED_FACE('',(#24),#22,.T.);
#213=ADVANCED_FACE('',(#25,#18),#20,.T.);
#214=ADVANCED_FACE('',(#26),#207,.F.);
#215=ADVANCED_FACE('',(#27),#15,.F.);
#216=ADVANCED_FACE('',(#28),#208,.F.);
#217=ADVANCED_FACE('',(#29),#16,.F.);
#218=ADVANCED_FACE('',(#30),#209,.F.);
#219=ADVANCED_FACE('',(#31,#19),#21,.T.);
#220=ADVANCED_FACE('',(#32),#210,.T.);
#221=ADVANCED_FACE('',(#33),#17,.T.);
#222=CLOSED_SHELL('',(#211,#212,#213,#214,#215,#216,#217,#218,#219,#220,
#221));
#223=DERIVED_UNIT_ELEMENT(#225,1.);
#224=DERIVED_UNIT_ELEMENT(#429,3.);
#225=(
MASS_UNIT()
NAMED_UNIT(*)
SI_UNIT($,.GRAM.)
);
#226=DERIVED_UNIT((#223,#224));
#227=MEASURE_REPRESENTATION_ITEM('density measure',
POSITIVE_RATIO_MEASURE(1.),#226);
#228=PROPERTY_DEFINITION_REPRESENTATION(#233,#230);
#229=PROPERTY_DEFINITION_REPRESENTATION(#234,#231);
#230=REPRESENTATION('material name',(#232),#426);
#231=REPRESENTATION('density',(#227),#426);
#232=DESCRIPTIVE_REPRESENTATION_ITEM('Generic','Generic');
#233=PROPERTY_DEFINITION('material property','material name',#436);
#234=PROPERTY_DEFINITION('material property','density of part',#436);
#235=DATE_TIME_ROLE('creation_date');
#236=APPLIED_DATE_AND_TIME_ASSIGNMENT(#237,#235,(#436));
#237=DATE_AND_TIME(#238,#239);
#238=CALENDAR_DATE(2019,9,7);
#239=LOCAL_TIME(15,18,1.,#240);
#240=COORDINATED_UNIVERSAL_TIME_OFFSET(0,0,.BEHIND.);
#241=AXIS2_PLACEMENT_3D('placement',#357,#277,#278);
#242=AXIS2_PLACEMENT_3D('',#358,#279,#280);
#243=AXIS2_PLACEMENT_3D('',#361,#281,#282);
#244=AXIS2_PLACEMENT_3D('',#363,#283,#284);
#245=AXIS2_PLACEMENT_3D('',#367,#286,#287);
#246=AXIS2_PLACEMENT_3D('',#368,#288,#289);
#247=AXIS2_PLACEMENT_3D('',#369,#290,#291);
#248=AXIS2_PLACEMENT_3D('',#370,#292,#293);
#249=AXIS2_PLACEMENT_3D('',#373,#294,#295);
#250=AXIS2_PLACEMENT_3D('',#374,#296,#297);
#251=AXIS2_PLACEMENT_3D('',#375,#298,#299);
#252=AXIS2_PLACEMENT_3D('',#376,#300,#301);
#253=AXIS2_PLACEMENT_3D('',#379,#302,#303);
#254=AXIS2_PLACEMENT_3D('',#380,#304,#305);
#255=AXIS2_PLACEMENT_3D('',#381,#306,#307);
#256=AXIS2_PLACEMENT_3D('',#385,#309,#310);
#257=AXIS2_PLACEMENT_3D('',#386,#311,#312);
#258=AXIS2_PLACEMENT_3D('',#387,#313,#314);
#259=AXIS2_PLACEMENT_3D('',#391,#316,#317);
#260=AXIS2_PLACEMENT_3D('',#392,#318,#319);
#261=AXIS2_PLACEMENT_3D('',#393,#320,#321);
#262=AXIS2_PLACEMENT_3D('',#397,#323,#324);
#263=AXIS2_PLACEMENT_3D('',#398,#325,#326);
#264=AXIS2_PLACEMENT_3D('',#399,#327,#328);
#265=AXIS2_PLACEMENT_3D('',#403,#330,#331);
#266=AXIS2_PLACEMENT_3D('',#404,#332,#333);
#267=AXIS2_PLACEMENT_3D('',#405,#334,#335);
#268=AXIS2_PLACEMENT_3D('',#409,#337,#338);
#269=AXIS2_PLACEMENT_3D('',#410,#339,#340);
#270=AXIS2_PLACEMENT_3D('',#411,#341,#342);
#271=AXIS2_PLACEMENT_3D('',#414,#343,#344);
#272=AXIS2_PLACEMENT_3D('',#415,#345,#346);
#273=AXIS2_PLACEMENT_3D('',#416,#347,#348);
#274=AXIS2_PLACEMENT_3D('',#419,#349,#350);
#275=AXIS2_PLACEMENT_3D('',#420,#351,#352);
#276=AXIS2_PLACEMENT_3D('',#422,#354,#355);
#277=DIRECTION('axis',(0.,0.,1.));
#278=DIRECTION('refdir',(1.,0.,0.));
#279=DIRECTION('center_axis',(-1.,1.24368306713148E-16,0.));
#280=DIRECTION('ref_axis',(1.11022302462515E-16,1.,0.));
#281=DIRECTION('center_axis',(1.,-1.24368306713148E-16,0.));
#282=DIRECTION('ref_axis',(0.,0.,-1.));
#283=DIRECTION('center_axis',(1.,-1.24368306713148E-16,0.));
#284=DIRECTION('ref_axis',(0.,0.,-1.));
#285=DIRECTION('',(-0.996917333733128,-0.0784590957278445,-9.60846804471007E-18));
#286=DIRECTION('center_axis',(1.,-1.24368306713148E-16,0.));
#287=DIRECTION('ref_axis',(0.,0.,-1.));
#288=DIRECTION('center_axis',(1.,-1.24368306713148E-16,0.));
#289=DIRECTION('ref_axis',(0.,0.,-1.));
#290=DIRECTION('center_axis',(1.,-1.24368306713148E-16,0.));
#291=DIRECTION('ref_axis',(0.,0.,-1.));
#292=DIRECTION('center_axis',(1.,-1.24368306713148E-16,0.));
#293=DIRECTION('ref_axis',(0.,0.,-1.));
#294=DIRECTION('center_axis',(1.,-1.24368306713148E-16,0.));
#295=DIRECTION('ref_axis',(0.,0.,-1.));
#296=DIRECTION('center_axis',(1.,-1.24368306713148E-16,0.));
#297=DIRECTION('ref_axis',(0.,0.,-1.));
#298=DIRECTION('center_axis',(-1.24368306713148E-16,-1.,-1.22464679914735E-16));
#299=DIRECTION('ref_axis',(0.,-1.22464679914735E-16,1.));
#300=DIRECTION('center_axis',(1.,-1.24368306713148E-16,0.));
#301=DIRECTION('ref_axis',(0.,0.,-1.));
#302=DIRECTION('center_axis',(1.,-1.24368306713148E-16,0.));
#303=DIRECTION('ref_axis',(0.,0.,-1.));
#304=DIRECTION('center_axis',(1.,-1.24368306713148E-16,0.));
#305=DIRECTION('ref_axis',(0.,0.,-1.));
#306=DIRECTION('center_axis',(1.,-1.24368306713148E-16,0.));
#307=DIRECTION('ref_axis',(1.11022302462515E-16,1.,0.));
#308=DIRECTION('',(-0.866025403784448,0.499999999999983,6.12323399573656E-17));
#309=DIRECTION('center_axis',(1.,-1.24368306713148E-16,0.));
#310=DIRECTION('ref_axis',(0.,0.,-1.));
#311=DIRECTION('center_axis',(1.,-1.24368306713148E-16,0.));
#312=DIRECTION('ref_axis',(0.,0.,-1.));
#313=DIRECTION('center_axis',(1.,-1.24368306713148E-16,0.));
#314=DIRECTION('ref_axis',(1.11022302462515E-16,1.,0.));
#315=DIRECTION('',(-1.,1.24368306713148E-16,0.));
#316=DIRECTION('center_axis',(1.,-1.24368306713148E-16,0.));
#317=DIRECTION('ref_axis',(0.,0.,-1.));
#318=DIRECTION('center_axis',(1.,-1.24368306713148E-16,0.));
#319=DIRECTION('ref_axis',(0.,0.,-1.));
#320=DIRECTION('center_axis',(-1.,1.24368306713148E-16,0.));
#321=DIRECTION('ref_axis',(1.11022302462515E-16,1.,0.));
#322=DIRECTION('',(-0.500000000000098,-0.866025403784382,-1.06057523872484E-16));
#323=DIRECTION('center_axis',(1.,-1.24368306713148E-16,0.));
#324=DIRECTION('ref_axis',(0.,0.,-1.));
#325=DIRECTION('center_axis',(1.,-1.24368306713148E-16,0.));
#326=DIRECTION('ref_axis',(0.,0.,-1.));
#327=DIRECTION('center_axis',(1.,-1.24368306713148E-16,0.));
#328=DIRECTION('ref_axis',(1.11022302462515E-16,1.,0.));
#329=DIRECTION('',(-1.,1.24368306713148E-16,0.));
#330=DIRECTION('center_axis',(1.,-1.24368306713148E-16,0.));
#331=DIRECTION('ref_axis',(0.,0.,-1.));
#332=DIRECTION('center_axis',(1.,-1.24368306713148E-16,0.));
#333=DIRECTION('ref_axis',(0.,0.,-1.));
#334=DIRECTION('center_axis',(-1.,1.24368306713148E-16,0.));
#335=DIRECTION('ref_axis',(1.11022302462515E-16,1.,0.));
#336=DIRECTION('',(-0.866025403784439,-0.5,-6.12323399573677E-17));
#337=DIRECTION('center_axis',(1.,-1.24368306713148E-16,0.));
#338=DIRECTION('ref_axis',(0.,0.,-1.));
#339=DIRECTION('center_axis',(1.,-1.24368306713148E-16,0.));
#340=DIRECTION('ref_axis',(0.,0.,-1.));
#341=DIRECTION('center_axis',(-1.,1.24368306713148E-16,0.));
#342=DIRECTION('ref_axis',(0.,0.,1.));
#343=DIRECTION('center_axis',(1.,-1.24368306713148E-16,0.));
#344=DIRECTION('ref_axis',(0.,0.,-1.));
#345=DIRECTION('center_axis',(1.,-1.24368306713148E-16,0.));
#346=DIRECTION('ref_axis',(0.,0.,-1.));
#347=DIRECTION('center_axis',(1.,-1.24368306713148E-16,0.));
#348=DIRECTION('ref_axis',(1.11022302462515E-16,1.,0.));
#349=DIRECTION('center_axis',(1.,-1.24368306713148E-16,0.));
#350=DIRECTION('ref_axis',(0.,0.,-1.));
#351=DIRECTION('center_axis',(1.,-1.24368306713148E-16,0.));
#352=DIRECTION('ref_axis',(0.,0.,-1.));
#353=DIRECTION('',(-0.707106781186547,0.707106781186548,8.65956056235493E-17));
#354=DIRECTION('center_axis',(1.,-1.24368306713148E-16,0.));
#355=DIRECTION('ref_axis',(1.11022302462515E-16,1.,0.));
#356=DIRECTION('',(-1.,1.24368306713148E-16,0.));
#357=CARTESIAN_POINT('',(0.,0.,0.));
#358=CARTESIAN_POINT('Origin',(280.479922443602,-3.26623669720956E-14,0.));
#359=CARTESIAN_POINT('',(299.078459095728,7.07252684207493,0.));
#360=CARTESIAN_POINT('',(299.078459095728,-3.58415702187661E-14,7.07252684207497));
#361=CARTESIAN_POINT('Origin',(299.078459095728,-3.4975435482863E-14,0.));
#362=CARTESIAN_POINT('',(299.078459095728,-7.072526842075,-8.66134735903084E-16));
#363=CARTESIAN_POINT('Origin',(299.078459095728,-3.4975435482863E-14,0.));
#364=CARTESIAN_POINT('',(261.881385791476,-10.0000000000001,-1.22464679914736E-15));
#365=CARTESIAN_POINT('',(280.479922443602,-8.53626342103754,-1.04539076752522E-15));
#366=CARTESIAN_POINT('',(261.881385791476,10.,0.));
#367=CARTESIAN_POINT('Origin',(261.881385791476,-3.03492984613283E-14,0.));
#368=CARTESIAN_POINT('Origin',(261.881385791476,-3.03492984613283E-14,0.));
#369=CARTESIAN_POINT('Origin',(299.078459095728,-3.4975435482863E-14,0.));
#370=CARTESIAN_POINT('Origin',(299.,-3.49656776579811E-14,0.));
#371=CARTESIAN_POINT('',(300.,6.0756095083418,0.));
#372=CARTESIAN_POINT('',(300.,-3.58340935384202E-14,6.07560950834183));
#373=CARTESIAN_POINT('Origin',(300.,-3.50900459646942E-14,0.));
#374=CARTESIAN_POINT('Origin',(300.,-3.50900459646942E-14,0.));
#375=CARTESIAN_POINT('Origin',(299.,-3.57097252317071E-14,6.07560950834183));
#376=CARTESIAN_POINT('Origin',(300.,3.57735026918967,0.));
#377=CARTESIAN_POINT('',(300.,3.57735026918967,0.));
#378=CARTESIAN_POINT('',(300.,-3.57735026918974,-4.3809905565921E-16));
#379=CARTESIAN_POINT('Origin',(300.,-3.50900459646942E-14,0.));
#380=CARTESIAN_POINT('Origin',(300.,-3.50900459646942E-14,0.));
#381=CARTESIAN_POINT('Origin',(299.5,-3.50278618113376E-14,0.));
#382=CARTESIAN_POINT('',(299.,-3.00000000000009,-3.67394039744213E-16));
#383=CARTESIAN_POINT('',(299.5,-3.28867513459492,-4.02746547701711E-16));
#384=CARTESIAN_POINT('',(299.,3.00000000000002,0.));
#385=CARTESIAN_POINT('Origin',(299.,-3.49656776579811E-14,0.));
#386=CARTESIAN_POINT('Origin',(299.,-3.49656776579811E-14,0.));
#387=CARTESIAN_POINT('Origin',(288.788675134595,-3.36957124751728E-14,0.));
#388=CARTESIAN_POINT('',(278.57735026919,-3.00000000000009,-3.67394039744213E-16));
#389=CARTESIAN_POINT('',(288.788675134595,-3.00000000000009,-3.67394039744213E-16));
#390=CARTESIAN_POINT('',(278.57735026919,3.00000000000002,0.));
#391=CARTESIAN_POINT('Origin',(278.57735026919,-3.24257472923645E-14,0.));
#392=CARTESIAN_POINT('Origin',(278.57735026919,-3.24257472923645E-14,0.));
#393=CARTESIAN_POINT('Origin',(278.288675134595,-3.23898452546847E-14,0.));
#394=CARTESIAN_POINT('',(278.,-4.00000000000007,-4.89858719658946E-16));
#395=CARTESIAN_POINT('',(278.288675134595,-3.50000000000008,-4.28626379701579E-16));
#396=CARTESIAN_POINT('',(278.,4.,0.));
#397=CARTESIAN_POINT('Origin',(278.,-3.23539432170049E-14,0.));
#398=CARTESIAN_POINT('Origin',(278.,-3.23539432170049E-14,0.));
#399=CARTESIAN_POINT('Origin',(139.25,-1.50978406605556E-14,0.));
#400=CARTESIAN_POINT('',(0.500000000000043,-4.00000000000002,-4.89858719658943E-16));
#401=CARTESIAN_POINT('',(139.25,-4.00000000000003,-4.89858719658943E-16));
#402=CARTESIAN_POINT('',(0.500000000000036,4.,0.));
#403=CARTESIAN_POINT('Origin',(0.500000000000043,2.15826189589374E-15,0.));
#404=CARTESIAN_POINT('Origin',(0.500000000000043,2.15826189589374E-15,0.));
#405=CARTESIAN_POINT('Origin',(0.250000000000039,2.18935397257202E-15,0.));
#406=CARTESIAN_POINT('',(3.56312201965636E-14,-4.28867513459481,-5.25211227616439E-16));
#407=CARTESIAN_POINT('',(0.250000000000039,-4.1443375672974,-5.0753497363769E-16));
#408=CARTESIAN_POINT('',(3.5527136788005E-14,4.28867513459482,0.));
#409=CARTESIAN_POINT('Origin',(3.5527136788005E-14,2.22044604925031E-15,
0.));
#410=CARTESIAN_POINT('Origin',(3.5527136788005E-14,2.22044604925031E-15,
0.));
#411=CARTESIAN_POINT('Origin',(3.5527136788005E-14,9.,0.));
#412=CARTESIAN_POINT('',(3.5527136788005E-14,9.,0.));
#413=CARTESIAN_POINT('',(3.80945275324507E-14,-8.99999999999999,-1.10218211923262E-15));
#414=CARTESIAN_POINT('Origin',(3.5527136788005E-14,2.22044604925031E-15,
0.));
#415=CARTESIAN_POINT('Origin',(3.5527136788005E-14,2.22044604925031E-15,
0.));
#416=CARTESIAN_POINT('Origin',(0.500000000000043,2.15826189589374E-15,0.));
#417=CARTESIAN_POINT('',(1.00000000000004,10.,0.));
#418=CARTESIAN_POINT('',(1.00000000000004,-9.99999999999999,-1.22464679914735E-15));
#419=CARTESIAN_POINT('Origin',(1.00000000000003,2.09607774253717E-15,0.));
#420=CARTESIAN_POINT('Origin',(1.00000000000003,2.09607774253717E-15,0.));
#421=CARTESIAN_POINT('',(0.500000000000042,-9.49999999999999,-1.16341445918998E-15));
#422=CARTESIAN_POINT('Origin',(131.440692895738,-1.41266103593956E-14,0.));
#423=CARTESIAN_POINT('',(131.440692895738,-10.,-1.22464679914736E-15));
#424=UNCERTAINTY_MEASURE_WITH_UNIT(LENGTH_MEASURE(0.01),#428,
'DISTANCE_ACCURACY_VALUE',
'Maximum model space distance between geometric entities at asserted c
onnectivities');
#425=UNCERTAINTY_MEASURE_WITH_UNIT(LENGTH_MEASURE(0.01),#428,
'DISTANCE_ACCURACY_VALUE',
'Maximum model space distance between geometric entities at asserted c
onnectivities');
#426=(
GEOMETRIC_REPRESENTATION_CONTEXT(3)
GLOBAL_UNCERTAINTY_ASSIGNED_CONTEXT((#424))
GLOBAL_UNIT_ASSIGNED_CONTEXT((#428,#430,#431))
REPRESENTATION_CONTEXT('','3D')
);
#427=(
GEOMETRIC_REPRESENTATION_CONTEXT(3)
GLOBAL_UNCERTAINTY_ASSIGNED_CONTEXT((#425))
GLOBAL_UNIT_ASSIGNED_CONTEXT((#428,#430,#431))
REPRESENTATION_CONTEXT('','3D')
);
#428=(
LENGTH_UNIT()
NAMED_UNIT(*)
SI_UNIT(.MILLI.,.METRE.)
);
#429=(
LENGTH_UNIT()
NAMED_UNIT(*)
SI_UNIT(.CENTI.,.METRE.)
);
#430=(
NAMED_UNIT(*)
PLANE_ANGLE_UNIT()
SI_UNIT($,.RADIAN.)
);
#431=(
NAMED_UNIT(*)
SI_UNIT($,.STERADIAN.)
SOLID_ANGLE_UNIT()
);
#432=SHAPE_DEFINITION_REPRESENTATION(#433,#434);
#433=PRODUCT_DEFINITION_SHAPE('',$,#436);
#434=SHAPE_REPRESENTATION('',(#241),#426);
#435=PRODUCT_DEFINITION_CONTEXT('part definition',#440,'design');
#436=PRODUCT_DEFINITION('S20-SD06-300','S20-SD06-300',#437,#435);
#437=PRODUCT_DEFINITION_FORMATION('',$,#442);
#438=PRODUCT_RELATED_PRODUCT_CATEGORY('S20-SD06-300','S20-SD06-300',(#442));
#439=APPLICATION_PROTOCOL_DEFINITION('international standard',
'automotive_design',2009,#440);
#440=APPLICATION_CONTEXT(
'Core Data for Automotive Mechanical Design Process');
#441=PRODUCT_CONTEXT('part definition',#440,'mechanical');
#442=PRODUCT('S20-SD06-300','S20-SD06-300',$,(#441));
#443=PRESENTATION_STYLE_ASSIGNMENT((#444));
#444=SURFACE_STYLE_USAGE(.BOTH.,#447);
#445=SURFACE_STYLE_RENDERING_WITH_PROPERTIES($,#451,(#446));
#446=SURFACE_STYLE_TRANSPARENT(0.);
#447=SURFACE_SIDE_STYLE('',(#448,#445));
#448=SURFACE_STYLE_FILL_AREA(#449);
#449=FILL_AREA_STYLE('',(#450));
#450=FILL_AREA_STYLE_COLOUR('',#451);
#451=COLOUR_RGB('',0.749019607843137,0.749019607843137,0.749019607843137);
ENDSEC;
END-ISO-10303-21;
