ISO-10303-21;
HEADER;
/* Generated by software containing ST-Developer
 * from STEP Tools, Inc. (www.steptools.com) 
 */

FILE_DESCRIPTION(
/* description */ (''),
/* implementation_level */ '2;1');

FILE_NAME(
/* name */ 'C:\\Users\\ldfli\\OneDrive\\Documents\\Models\\S20-SD06-16
0.stp',
/* time_stamp */ '2019-07-09T10:36:21-05:00',
/* author */ ('ldfli'),
/* organization */ (''),
/* preprocessor_version */ 'ST-DEVELOPER v18',
/* originating_system */ 'Autodesk Inventor LT',
/* authorisation */ '');

FILE_SCHEMA (('AUTOMOTIVE_DESIGN { 1 0 10303 214 3 1 1 }'));
ENDSEC;

DATA;
#10=MECHANICAL_DESIGN_GEOMETRIC_PRESENTATION_REPRESENTATION('',(#13),#427);
#11=SHAPE_REPRESENTATION_RELATIONSHIP('SRR','None',#434,#12);
#12=ADVANCED_BREP_SHAPE_REPRESENTATION('',(#14),#426);
#13=STYLED_ITEM('',(#443),#14);
#14=MANIFOLD_SOLID_BREP('Solid1',#222);
#15=CYLINDRICAL_SURFACE('',#255,3.00000000000002);
#16=CYLINDRICAL_SURFACE('',#261,4.00000000000001);
#17=CYLINDRICAL_SURFACE('',#273,10.);
#18=LINE('',#377,#26);
#19=LINE('',#383,#27);
#20=LINE('',#389,#28);
#21=LINE('',#395,#29);
#22=LINE('',#401,#30);
#23=LINE('',#415,#31);
#24=LINE('',#421,#32);
#25=LINE('',#423,#33);
#26=VECTOR('',#301,3.28867513459483);
#27=VECTOR('',#308,3.00000000000002);
#28=VECTOR('',#315,3.50000000000002);
#29=VECTOR('',#322,4.00000000000001);
#30=VECTOR('',#329,4.14433756729741);
#31=VECTOR('',#346,9.49999999999999);
#32=VECTOR('',#353,10.);
#33=VECTOR('',#356,8.53626342103748);
#34=CONICAL_SURFACE('',#252,3.28867513459484,0.523598775598299);
#35=CONICAL_SURFACE('',#258,3.50000000000002,1.04719755119645);
#36=CONICAL_SURFACE('',#264,4.14433756729741,0.523598775598299);
#37=CONICAL_SURFACE('',#270,9.49999999999999,0.785398163397448);
#38=CONICAL_SURFACE('',#276,8.53626342103748,0.0785398163397445);
#39=FACE_BOUND('',#56,.T.);
#40=FACE_BOUND('',#63,.T.);
#41=PLANE('',#249);
#42=PLANE('',#267);
#43=FACE_OUTER_BOUND('',#54,.T.);
#44=FACE_OUTER_BOUND('',#55,.T.);
#45=FACE_OUTER_BOUND('',#57,.T.);
#46=FACE_OUTER_BOUND('',#58,.T.);
#47=FACE_OUTER_BOUND('',#59,.T.);
#48=FACE_OUTER_BOUND('',#60,.T.);
#49=FACE_OUTER_BOUND('',#61,.T.);
#50=FACE_OUTER_BOUND('',#62,.T.);
#51=FACE_OUTER_BOUND('',#64,.T.);
#52=FACE_OUTER_BOUND('',#65,.T.);
#53=FACE_OUTER_BOUND('',#66,.T.);
#54=EDGE_LOOP('',(#146,#147,#148,#149,#150,#151,#152));
#55=EDGE_LOOP('',(#153,#154));
#56=EDGE_LOOP('',(#155,#156));
#57=EDGE_LOOP('',(#157,#158,#159,#160,#161,#162));
#58=EDGE_LOOP('',(#163,#164,#165,#166,#167,#168));
#59=EDGE_LOOP('',(#169,#170,#171,#172,#173,#174));
#60=EDGE_LOOP('',(#175,#176,#177,#178,#179,#180));
#61=EDGE_LOOP('',(#181,#182,#183,#184,#185,#186));
#62=EDGE_LOOP('',(#187,#188));
#63=EDGE_LOOP('',(#189,#190));
#64=EDGE_LOOP('',(#191,#192,#193,#194,#195,#196));
#65=EDGE_LOOP('',(#197,#198,#199,#200,#201,#202));
#66=EDGE_LOOP('',(#203,#204,#205,#206,#207,#208,#209));
#67=CIRCLE('',#243,6.07560950834181);
#68=CIRCLE('',#244,6.07560950834181);
#69=CIRCLE('',#245,0.999999999999992);
#70=CIRCLE('',#246,7.07252684207494);
#71=CIRCLE('',#247,7.07252684207494);
#72=CIRCLE('',#248,7.07252684207494);
#73=CIRCLE('',#250,3.57735026918965);
#74=CIRCLE('',#251,3.57735026918965);
#75=CIRCLE('',#253,3.00000000000002);
#76=CIRCLE('',#254,3.00000000000002);
#77=CIRCLE('',#256,3.00000000000002);
#78=CIRCLE('',#257,3.00000000000002);
#79=CIRCLE('',#259,4.00000000000002);
#80=CIRCLE('',#260,4.00000000000002);
#81=CIRCLE('',#262,4.);
#82=CIRCLE('',#263,4.);
#83=CIRCLE('',#265,4.28867513459481);
#84=CIRCLE('',#266,4.28867513459481);
#85=CIRCLE('',#268,8.99999999999999);
#86=CIRCLE('',#269,8.99999999999999);
#87=CIRCLE('',#271,9.99999999999999);
#88=CIRCLE('',#272,9.99999999999999);
#89=CIRCLE('',#274,10.);
#90=CIRCLE('',#275,10.);
#91=VERTEX_POINT('',#359);
#92=VERTEX_POINT('',#360);
#93=VERTEX_POINT('',#363);
#94=VERTEX_POINT('',#365);
#95=VERTEX_POINT('',#367);
#96=VERTEX_POINT('',#371);
#97=VERTEX_POINT('',#372);
#98=VERTEX_POINT('',#376);
#99=VERTEX_POINT('',#378);
#100=VERTEX_POINT('',#382);
#101=VERTEX_POINT('',#384);
#102=VERTEX_POINT('',#388);
#103=VERTEX_POINT('',#390);
#104=VERTEX_POINT('',#394);
#105=VERTEX_POINT('',#396);
#106=VERTEX_POINT('',#400);
#107=VERTEX_POINT('',#402);
#108=VERTEX_POINT('',#406);
#109=VERTEX_POINT('',#407);
#110=VERTEX_POINT('',#411);
#111=VERTEX_POINT('',#412);
#112=VERTEX_POINT('',#417);
#113=VERTEX_POINT('',#418);
#114=EDGE_CURVE('',#91,#92,#67,.T.);
#115=EDGE_CURVE('',#92,#91,#68,.T.);
#116=EDGE_CURVE('',#92,#93,#69,.T.);
#117=EDGE_CURVE('',#93,#94,#70,.T.);
#118=EDGE_CURVE('',#94,#95,#71,.T.);
#119=EDGE_CURVE('',#95,#93,#72,.T.);
#120=EDGE_CURVE('',#96,#97,#73,.T.);
#121=EDGE_CURVE('',#97,#96,#74,.T.);
#122=EDGE_CURVE('',#97,#98,#18,.T.);
#123=EDGE_CURVE('',#99,#98,#75,.T.);
#124=EDGE_CURVE('',#98,#99,#76,.T.);
#125=EDGE_CURVE('',#98,#100,#19,.T.);
#126=EDGE_CURVE('',#101,#100,#77,.T.);
#127=EDGE_CURVE('',#100,#101,#78,.T.);
#128=EDGE_CURVE('',#100,#102,#20,.T.);
#129=EDGE_CURVE('',#103,#102,#79,.T.);
#130=EDGE_CURVE('',#102,#103,#80,.T.);
#131=EDGE_CURVE('',#102,#104,#21,.T.);
#132=EDGE_CURVE('',#105,#104,#81,.T.);
#133=EDGE_CURVE('',#104,#105,#82,.T.);
#134=EDGE_CURVE('',#104,#106,#22,.T.);
#135=EDGE_CURVE('',#107,#106,#83,.T.);
#136=EDGE_CURVE('',#106,#107,#84,.T.);
#137=EDGE_CURVE('',#108,#109,#85,.T.);
#138=EDGE_CURVE('',#109,#108,#86,.T.);
#139=EDGE_CURVE('',#110,#111,#87,.T.);
#140=EDGE_CURVE('',#111,#110,#88,.T.);
#141=EDGE_CURVE('',#111,#109,#23,.T.);
#142=EDGE_CURVE('',#112,#113,#89,.T.);
#143=EDGE_CURVE('',#113,#112,#90,.T.);
#144=EDGE_CURVE('',#113,#111,#24,.T.);
#145=EDGE_CURVE('',#94,#113,#25,.T.);
#146=ORIENTED_EDGE('',*,*,#114,.F.);
#147=ORIENTED_EDGE('',*,*,#115,.F.);
#148=ORIENTED_EDGE('',*,*,#116,.T.);
#149=ORIENTED_EDGE('',*,*,#117,.T.);
#150=ORIENTED_EDGE('',*,*,#118,.T.);
#151=ORIENTED_EDGE('',*,*,#119,.T.);
#152=ORIENTED_EDGE('',*,*,#116,.F.);
#153=ORIENTED_EDGE('',*,*,#114,.T.);
#154=ORIENTED_EDGE('',*,*,#115,.T.);
#155=ORIENTED_EDGE('',*,*,#120,.F.);
#156=ORIENTED_EDGE('',*,*,#121,.F.);
#157=ORIENTED_EDGE('',*,*,#120,.T.);
#158=ORIENTED_EDGE('',*,*,#122,.T.);
#159=ORIENTED_EDGE('',*,*,#123,.F.);
#160=ORIENTED_EDGE('',*,*,#124,.F.);
#161=ORIENTED_EDGE('',*,*,#122,.F.);
#162=ORIENTED_EDGE('',*,*,#121,.T.);
#163=ORIENTED_EDGE('',*,*,#123,.T.);
#164=ORIENTED_EDGE('',*,*,#125,.T.);
#165=ORIENTED_EDGE('',*,*,#126,.F.);
#166=ORIENTED_EDGE('',*,*,#127,.F.);
#167=ORIENTED_EDGE('',*,*,#125,.F.);
#168=ORIENTED_EDGE('',*,*,#124,.T.);
#169=ORIENTED_EDGE('',*,*,#126,.T.);
#170=ORIENTED_EDGE('',*,*,#128,.T.);
#171=ORIENTED_EDGE('',*,*,#129,.F.);
#172=ORIENTED_EDGE('',*,*,#130,.F.);
#173=ORIENTED_EDGE('',*,*,#128,.F.);
#174=ORIENTED_EDGE('',*,*,#127,.T.);
#175=ORIENTED_EDGE('',*,*,#129,.T.);
#176=ORIENTED_EDGE('',*,*,#131,.T.);
#177=ORIENTED_EDGE('',*,*,#132,.F.);
#178=ORIENTED_EDGE('',*,*,#133,.F.);
#179=ORIENTED_EDGE('',*,*,#131,.F.);
#180=ORIENTED_EDGE('',*,*,#130,.T.);
#181=ORIENTED_EDGE('',*,*,#132,.T.);
#182=ORIENTED_EDGE('',*,*,#134,.T.);
#183=ORIENTED_EDGE('',*,*,#135,.F.);
#184=ORIENTED_EDGE('',*,*,#136,.F.);
#185=ORIENTED_EDGE('',*,*,#134,.F.);
#186=ORIENTED_EDGE('',*,*,#133,.T.);
#187=ORIENTED_EDGE('',*,*,#137,.F.);
#188=ORIENTED_EDGE('',*,*,#138,.F.);
#189=ORIENTED_EDGE('',*,*,#135,.T.);
#190=ORIENTED_EDGE('',*,*,#136,.T.);
#191=ORIENTED_EDGE('',*,*,#139,.F.);
#192=ORIENTED_EDGE('',*,*,#140,.F.);
#193=ORIENTED_EDGE('',*,*,#141,.T.);
#194=ORIENTED_EDGE('',*,*,#138,.T.);
#195=ORIENTED_EDGE('',*,*,#137,.T.);
#196=ORIENTED_EDGE('',*,*,#141,.F.);
#197=ORIENTED_EDGE('',*,*,#142,.F.);
#198=ORIENTED_EDGE('',*,*,#143,.F.);
#199=ORIENTED_EDGE('',*,*,#144,.T.);
#200=ORIENTED_EDGE('',*,*,#140,.T.);
#201=ORIENTED_EDGE('',*,*,#139,.T.);
#202=ORIENTED_EDGE('',*,*,#144,.F.);
#203=ORIENTED_EDGE('',*,*,#119,.F.);
#204=ORIENTED_EDGE('',*,*,#118,.F.);
#205=ORIENTED_EDGE('',*,*,#145,.T.);
#206=ORIENTED_EDGE('',*,*,#143,.T.);
#207=ORIENTED_EDGE('',*,*,#142,.T.);
#208=ORIENTED_EDGE('',*,*,#145,.F.);
#209=ORIENTED_EDGE('',*,*,#117,.F.);
#210=TOROIDAL_SURFACE('',#242,6.07560950834181,0.999999999999992);
#211=ADVANCED_FACE('',(#43),#210,.T.);
#212=ADVANCED_FACE('',(#44,#39),#41,.T.);
#213=ADVANCED_FACE('',(#45),#34,.F.);
#214=ADVANCED_FACE('',(#46),#15,.F.);
#215=ADVANCED_FACE('',(#47),#35,.F.);
#216=ADVANCED_FACE('',(#48),#16,.F.);
#217=ADVANCED_FACE('',(#49),#36,.F.);
#218=ADVANCED_FACE('',(#50,#40),#42,.T.);
#219=ADVANCED_FACE('',(#51),#37,.T.);
#220=ADVANCED_FACE('',(#52),#17,.T.);
#221=ADVANCED_FACE('',(#53),#38,.T.);
#222=CLOSED_SHELL('',(#211,#212,#213,#214,#215,#216,#217,#218,#219,#220,
#221));
#223=DERIVED_UNIT_ELEMENT(#225,1.);
#224=DERIVED_UNIT_ELEMENT(#429,3.);
#225=(
MASS_UNIT()
NAMED_UNIT(*)
SI_UNIT($,.GRAM.)
);
#226=DERIVED_UNIT((#223,#224));
#227=MEASURE_REPRESENTATION_ITEM('density measure',
POSITIVE_RATIO_MEASURE(1.),#226);
#228=PROPERTY_DEFINITION_REPRESENTATION(#233,#230);
#229=PROPERTY_DEFINITION_REPRESENTATION(#234,#231);
#230=REPRESENTATION('material name',(#232),#426);
#231=REPRESENTATION('density',(#227),#426);
#232=DESCRIPTIVE_REPRESENTATION_ITEM('Generic','Generic');
#233=PROPERTY_DEFINITION('material property','material name',#436);
#234=PROPERTY_DEFINITION('material property','density of part',#436);
#235=DATE_TIME_ROLE('creation_date');
#236=APPLIED_DATE_AND_TIME_ASSIGNMENT(#237,#235,(#436));
#237=DATE_AND_TIME(#238,#239);
#238=CALENDAR_DATE(2019,9,7);
#239=LOCAL_TIME(15,18,1.,#240);
#240=COORDINATED_UNIVERSAL_TIME_OFFSET(0,0,.BEHIND.);
#241=AXIS2_PLACEMENT_3D('placement',#357,#277,#278);
#242=AXIS2_PLACEMENT_3D('',#358,#279,#280);
#243=AXIS2_PLACEMENT_3D('',#361,#281,#282);
#244=AXIS2_PLACEMENT_3D('',#362,#283,#284);
#245=AXIS2_PLACEMENT_3D('',#364,#285,#286);
#246=AXIS2_PLACEMENT_3D('',#366,#287,#288);
#247=AXIS2_PLACEMENT_3D('',#368,#289,#290);
#248=AXIS2_PLACEMENT_3D('',#369,#291,#292);
#249=AXIS2_PLACEMENT_3D('',#370,#293,#294);
#250=AXIS2_PLACEMENT_3D('',#373,#295,#296);
#251=AXIS2_PLACEMENT_3D('',#374,#297,#298);
#252=AXIS2_PLACEMENT_3D('',#375,#299,#300);
#253=AXIS2_PLACEMENT_3D('',#379,#302,#303);
#254=AXIS2_PLACEMENT_3D('',#380,#304,#305);
#255=AXIS2_PLACEMENT_3D('',#381,#306,#307);
#256=AXIS2_PLACEMENT_3D('',#385,#309,#310);
#257=AXIS2_PLACEMENT_3D('',#386,#311,#312);
#258=AXIS2_PLACEMENT_3D('',#387,#313,#314);
#259=AXIS2_PLACEMENT_3D('',#391,#316,#317);
#260=AXIS2_PLACEMENT_3D('',#392,#318,#319);
#261=AXIS2_PLACEMENT_3D('',#393,#320,#321);
#262=AXIS2_PLACEMENT_3D('',#397,#323,#324);
#263=AXIS2_PLACEMENT_3D('',#398,#325,#326);
#264=AXIS2_PLACEMENT_3D('',#399,#327,#328);
#265=AXIS2_PLACEMENT_3D('',#403,#330,#331);
#266=AXIS2_PLACEMENT_3D('',#404,#332,#333);
#267=AXIS2_PLACEMENT_3D('',#405,#334,#335);
#268=AXIS2_PLACEMENT_3D('',#408,#336,#337);
#269=AXIS2_PLACEMENT_3D('',#409,#338,#339);
#270=AXIS2_PLACEMENT_3D('',#410,#340,#341);
#271=AXIS2_PLACEMENT_3D('',#413,#342,#343);
#272=AXIS2_PLACEMENT_3D('',#414,#344,#345);
#273=AXIS2_PLACEMENT_3D('',#416,#347,#348);
#274=AXIS2_PLACEMENT_3D('',#419,#349,#350);
#275=AXIS2_PLACEMENT_3D('',#420,#351,#352);
#276=AXIS2_PLACEMENT_3D('',#422,#354,#355);
#277=DIRECTION('axis',(0.,0.,1.));
#278=DIRECTION('refdir',(1.,0.,0.));
#279=DIRECTION('center_axis',(1.,-1.24368306713148E-16,0.));
#280=DIRECTION('ref_axis',(0.,0.,-1.));
#281=DIRECTION('center_axis',(1.,-1.24368306713148E-16,0.));
#282=DIRECTION('ref_axis',(0.,0.,-1.));
#283=DIRECTION('center_axis',(1.,-1.24368306713148E-16,0.));
#284=DIRECTION('ref_axis',(0.,0.,-1.));
#285=DIRECTION('center_axis',(-1.24368306713148E-16,-1.,-1.22464679914735E-16));
#286=DIRECTION('ref_axis',(0.,-1.22464679914735E-16,1.));
#287=DIRECTION('center_axis',(1.,-1.24368306713148E-16,0.));
#288=DIRECTION('ref_axis',(0.,0.,-1.));
#289=DIRECTION('center_axis',(1.,-1.24368306713148E-16,0.));
#290=DIRECTION('ref_axis',(0.,0.,-1.));
#291=DIRECTION('center_axis',(1.,-1.24368306713148E-16,0.));
#292=DIRECTION('ref_axis',(0.,0.,-1.));
#293=DIRECTION('center_axis',(1.,-1.24368306713148E-16,0.));
#294=DIRECTION('ref_axis',(0.,0.,-1.));
#295=DIRECTION('center_axis',(1.,-1.24368306713148E-16,0.));
#296=DIRECTION('ref_axis',(0.,0.,-1.));
#297=DIRECTION('center_axis',(1.,-1.24368306713148E-16,0.));
#298=DIRECTION('ref_axis',(0.,0.,-1.));
#299=DIRECTION('center_axis',(1.,-1.24368306713148E-16,0.));
#300=DIRECTION('ref_axis',(1.33055584562598E-16,1.,0.));
#301=DIRECTION('',(-0.866025403784438,0.500000000000001,6.12323399573677E-17));
#302=DIRECTION('center_axis',(1.,-1.24368306713148E-16,0.));
#303=DIRECTION('ref_axis',(0.,0.,-1.));
#304=DIRECTION('center_axis',(1.,-1.24368306713148E-16,0.));
#305=DIRECTION('ref_axis',(0.,0.,-1.));
#306=DIRECTION('center_axis',(1.,-1.24368306713148E-16,0.));
#307=DIRECTION('ref_axis',(1.33055584562598E-16,1.,0.));
#308=DIRECTION('',(-1.,1.24368306713148E-16,0.));
#309=DIRECTION('center_axis',(1.,-1.24368306713148E-16,0.));
#310=DIRECTION('ref_axis',(0.,0.,-1.));
#311=DIRECTION('center_axis',(1.,-1.24368306713148E-16,0.));
#312=DIRECTION('ref_axis',(0.,0.,-1.));
#313=DIRECTION('center_axis',(-1.,1.24368306713148E-16,0.));
#314=DIRECTION('ref_axis',(1.33055584562598E-16,1.,0.));
#315=DIRECTION('',(-0.500000000000126,-0.866025403784366,-1.06057523872482E-16));
#316=DIRECTION('center_axis',(1.,-1.24368306713148E-16,0.));
#317=DIRECTION('ref_axis',(0.,0.,-1.));
#318=DIRECTION('center_axis',(1.,-1.24368306713148E-16,0.));
#319=DIRECTION('ref_axis',(0.,0.,-1.));
#320=DIRECTION('center_axis',(1.,-1.24368306713148E-16,0.));
#321=DIRECTION('ref_axis',(1.33055584562598E-16,1.,0.));
#322=DIRECTION('',(-1.,1.24368306713148E-16,0.));
#323=DIRECTION('center_axis',(1.,-1.24368306713148E-16,0.));
#324=DIRECTION('ref_axis',(0.,0.,-1.));
#325=DIRECTION('center_axis',(1.,-1.24368306713148E-16,0.));
#326=DIRECTION('ref_axis',(0.,0.,-1.));
#327=DIRECTION('center_axis',(-1.,1.24368306713148E-16,0.));
#328=DIRECTION('ref_axis',(1.33055584562598E-16,1.,0.));
#329=DIRECTION('',(-0.866025403784439,-0.5,-6.12323399573677E-17));
#330=DIRECTION('center_axis',(1.,-1.24368306713148E-16,0.));
#331=DIRECTION('ref_axis',(0.,0.,-1.));
#332=DIRECTION('center_axis',(1.,-1.24368306713148E-16,0.));
#333=DIRECTION('ref_axis',(0.,0.,-1.));
#334=DIRECTION('center_axis',(-1.,1.24368306713148E-16,0.));
#335=DIRECTION('ref_axis',(0.,0.,1.));
#336=DIRECTION('center_axis',(1.,-1.24368306713148E-16,0.));
#337=DIRECTION('ref_axis',(0.,0.,-1.));
#338=DIRECTION('center_axis',(1.,-1.24368306713148E-16,0.));
#339=DIRECTION('ref_axis',(0.,0.,-1.));
#340=DIRECTION('center_axis',(1.,-1.24368306713148E-16,0.));
#341=DIRECTION('ref_axis',(1.33055584562598E-16,1.,0.));
#342=DIRECTION('center_axis',(1.,-1.24368306713148E-16,0.));
#343=DIRECTION('ref_axis',(0.,0.,-1.));
#344=DIRECTION('center_axis',(1.,-1.24368306713148E-16,0.));
#345=DIRECTION('ref_axis',(0.,0.,-1.));
#346=DIRECTION('',(-0.707106781186547,0.707106781186548,8.65956056235493E-17));
#347=DIRECTION('center_axis',(1.,-1.24368306713148E-16,0.));
#348=DIRECTION('ref_axis',(1.33055584562598E-16,1.,0.));
#349=DIRECTION('center_axis',(1.,-1.24368306713148E-16,0.));
#350=DIRECTION('ref_axis',(0.,0.,-1.));
#351=DIRECTION('center_axis',(1.,-1.24368306713148E-16,0.));
#352=DIRECTION('ref_axis',(0.,0.,-1.));
#353=DIRECTION('',(-1.,1.24368306713148E-16,0.));
#354=DIRECTION('center_axis',(-1.,1.24368306713148E-16,0.));
#355=DIRECTION('ref_axis',(1.33055584562598E-16,1.,0.));
#356=DIRECTION('',(-0.996917333733128,-0.0784590957278445,-9.60846804471007E-18));
#357=CARTESIAN_POINT('',(0.,0.,0.));
#358=CARTESIAN_POINT('Origin',(159.,-1.75541147181403E-14,0.));
#359=CARTESIAN_POINT('',(160.,6.0756095083418,0.));
#360=CARTESIAN_POINT('',(160.,-1.84225305985794E-14,6.07560950834181));
#361=CARTESIAN_POINT('Origin',(160.,-1.76784830248534E-14,0.));
#362=CARTESIAN_POINT('Origin',(160.,-1.76784830248534E-14,0.));
#363=CARTESIAN_POINT('',(159.078459095728,-1.84300072789253E-14,7.07252684207494));
#364=CARTESIAN_POINT('Origin',(159.,-1.82981622918663E-14,6.07560950834181));
#365=CARTESIAN_POINT('',(159.078459095728,-7.07252684207496,-8.66134735903082E-16));
#366=CARTESIAN_POINT('Origin',(159.078459095728,-1.75638725430222E-14,0.));
#367=CARTESIAN_POINT('',(159.078459095728,7.07252684207492,0.));
#368=CARTESIAN_POINT('Origin',(159.078459095728,-1.75638725430222E-14,0.));
#369=CARTESIAN_POINT('Origin',(159.078459095728,-1.75638725430222E-14,0.));
#370=CARTESIAN_POINT('Origin',(160.,3.57735026918963,0.));
#371=CARTESIAN_POINT('',(160.,3.57735026918963,0.));
#372=CARTESIAN_POINT('',(160.,-3.57735026918967,-4.38099055659203E-16));
#373=CARTESIAN_POINT('Origin',(160.,-1.76784830248534E-14,0.));
#374=CARTESIAN_POINT('Origin',(160.,-1.76784830248534E-14,0.));
#375=CARTESIAN_POINT('Origin',(159.5,-1.76162988714969E-14,0.));
#376=CARTESIAN_POINT('',(159.,-3.00000000000004,-3.67394039744209E-16));
#377=CARTESIAN_POINT('',(159.5,-3.28867513459485,-4.02746547701706E-16));
#378=CARTESIAN_POINT('',(159.,3.,0.));
#379=CARTESIAN_POINT('Origin',(159.,-1.75541147181403E-14,0.));
#380=CARTESIAN_POINT('Origin',(159.,-1.75541147181403E-14,0.));
#381=CARTESIAN_POINT('Origin',(148.788675134595,-1.6284149535332E-14,0.));
#382=CARTESIAN_POINT('',(138.57735026919,-3.00000000000004,-3.67394039744209E-16));
#383=CARTESIAN_POINT('',(148.788675134595,-3.00000000000004,-3.67394039744209E-16));
#384=CARTESIAN_POINT('',(138.57735026919,3.,0.));
#385=CARTESIAN_POINT('Origin',(138.57735026919,-1.50141843525237E-14,0.));
#386=CARTESIAN_POINT('Origin',(138.57735026919,-1.50141843525237E-14,0.));
#387=CARTESIAN_POINT('Origin',(138.288675134595,-1.49782823148439E-14,0.));
#388=CARTESIAN_POINT('',(138.,-4.00000000000004,-4.89858719658944E-16));
#389=CARTESIAN_POINT('',(138.288675134595,-3.50000000000003,-4.28626379701576E-16));
#390=CARTESIAN_POINT('',(138.,4.,0.));
#391=CARTESIAN_POINT('Origin',(138.,-1.49423802771642E-14,0.));
#392=CARTESIAN_POINT('Origin',(138.,-1.49423802771642E-14,0.));
#393=CARTESIAN_POINT('Origin',(69.25,-6.39205919063521E-15,0.));
#394=CARTESIAN_POINT('',(0.500000000000043,-4.00000000000001,-4.89858719658942E-16));
#395=CARTESIAN_POINT('',(69.25,-4.00000000000002,-4.89858719658942E-16));
#396=CARTESIAN_POINT('',(0.500000000000036,4.,0.));
#397=CARTESIAN_POINT('Origin',(0.500000000000043,2.15826189589374E-15,0.));
#398=CARTESIAN_POINT('Origin',(0.500000000000043,2.15826189589374E-15,0.));
#399=CARTESIAN_POINT('Origin',(0.250000000000039,2.18935397257203E-15,0.));
#400=CARTESIAN_POINT('',(3.55965257270441E-14,-4.28867513459481,-5.25211227616439E-16));
#401=CARTESIAN_POINT('',(0.250000000000039,-4.1443375672974,-5.0753497363769E-16));
#402=CARTESIAN_POINT('',(3.5527136788005E-14,4.28867513459482,0.));
#403=CARTESIAN_POINT('Origin',(3.5527136788005E-14,2.22044604925031E-15,
0.));
#404=CARTESIAN_POINT('Origin',(3.5527136788005E-14,2.22044604925031E-15,
0.));
#405=CARTESIAN_POINT('Origin',(3.5527136788005E-14,9.,0.));
#406=CARTESIAN_POINT('',(3.5527136788005E-14,9.,0.));
#407=CARTESIAN_POINT('',(3.78863607153335E-14,-8.99999999999999,-1.10218211923262E-15));
#408=CARTESIAN_POINT('Origin',(3.5527136788005E-14,2.22044604925031E-15,
0.));
#409=CARTESIAN_POINT('Origin',(3.5527136788005E-14,2.22044604925031E-15,
0.));
#410=CARTESIAN_POINT('Origin',(0.500000000000043,2.15826189589374E-15,0.));
#411=CARTESIAN_POINT('',(1.00000000000004,10.,0.));
#412=CARTESIAN_POINT('',(1.00000000000004,-9.99999999999999,-1.22464679914735E-15));
#413=CARTESIAN_POINT('Origin',(1.00000000000003,2.09607774253717E-15,0.));
#414=CARTESIAN_POINT('Origin',(1.00000000000003,2.09607774253717E-15,0.));
#415=CARTESIAN_POINT('',(0.500000000000041,-9.49999999999999,-1.16341445918998E-15));
#416=CARTESIAN_POINT('Origin',(61.4406928957379,-5.42082888947518E-15,0.));
#417=CARTESIAN_POINT('',(121.881385791476,10.,0.));
#418=CARTESIAN_POINT('',(121.881385791476,-10.,-1.22464679914735E-15));
#419=CARTESIAN_POINT('Origin',(121.881385791476,-1.29377355214875E-14,0.));
#420=CARTESIAN_POINT('Origin',(121.881385791476,-1.29377355214875E-14,0.));
#421=CARTESIAN_POINT('',(61.4406928957379,-10.,-1.22464679914735E-15));
#422=CARTESIAN_POINT('Origin',(140.479922443602,-1.52508040322549E-14,0.));
#423=CARTESIAN_POINT('',(140.479922443602,-8.53626342103749,-1.04539076752522E-15));
#424=UNCERTAINTY_MEASURE_WITH_UNIT(LENGTH_MEASURE(0.01),#428,
'DISTANCE_ACCURACY_VALUE',
'Maximum model space distance between geometric entities at asserted c
onnectivities');
#425=UNCERTAINTY_MEASURE_WITH_UNIT(LENGTH_MEASURE(0.01),#428,
'DISTANCE_ACCURACY_VALUE',
'Maximum model space distance between geometric entities at asserted c
onnectivities');
#426=(
GEOMETRIC_REPRESENTATION_CONTEXT(3)
GLOBAL_UNCERTAINTY_ASSIGNED_CONTEXT((#424))
GLOBAL_UNIT_ASSIGNED_CONTEXT((#428,#430,#431))
REPRESENTATION_CONTEXT('','3D')
);
#427=(
GEOMETRIC_REPRESENTATION_CONTEXT(3)
GLOBAL_UNCERTAINTY_ASSIGNED_CONTEXT((#425))
GLOBAL_UNIT_ASSIGNED_CONTEXT((#428,#430,#431))
REPRESENTATION_CONTEXT('','3D')
);
#428=(
LENGTH_UNIT()
NAMED_UNIT(*)
SI_UNIT(.MILLI.,.METRE.)
);
#429=(
LENGTH_UNIT()
NAMED_UNIT(*)
SI_UNIT(.CENTI.,.METRE.)
);
#430=(
NAMED_UNIT(*)
PLANE_ANGLE_UNIT()
SI_UNIT($,.RADIAN.)
);
#431=(
NAMED_UNIT(*)
SI_UNIT($,.STERADIAN.)
SOLID_ANGLE_UNIT()
);
#432=SHAPE_DEFINITION_REPRESENTATION(#433,#434);
#433=PRODUCT_DEFINITION_SHAPE('',$,#436);
#434=SHAPE_REPRESENTATION('',(#241),#426);
#435=PRODUCT_DEFINITION_CONTEXT('part definition',#440,'design');
#436=PRODUCT_DEFINITION('S20-SD06-160','S20-SD06-160',#437,#435);
#437=PRODUCT_DEFINITION_FORMATION('',$,#442);
#438=PRODUCT_RELATED_PRODUCT_CATEGORY('S20-SD06-160','S20-SD06-160',(#442));
#439=APPLICATION_PROTOCOL_DEFINITION('international standard',
'automotive_design',2009,#440);
#440=APPLICATION_CONTEXT(
'Core Data for Automotive Mechanical Design Process');
#441=PRODUCT_CONTEXT('part definition',#440,'mechanical');
#442=PRODUCT('S20-SD06-160','S20-SD06-160',$,(#441));
#443=PRESENTATION_STYLE_ASSIGNMENT((#444));
#444=SURFACE_STYLE_USAGE(.BOTH.,#447);
#445=SURFACE_STYLE_RENDERING_WITH_PROPERTIES($,#451,(#446));
#446=SURFACE_STYLE_TRANSPARENT(0.);
#447=SURFACE_SIDE_STYLE('',(#448,#445));
#448=SURFACE_STYLE_FILL_AREA(#449);
#449=FILL_AREA_STYLE('',(#450));
#450=FILL_AREA_STYLE_COLOUR('',#451);
#451=COLOUR_RGB('',0.749019607843137,0.749019607843137,0.749019607843137);
ENDSEC;
END-ISO-10303-21;
