ISO-10303-21;
HEADER;
/* Generated by software containing ST-Developer
 * from STEP Tools, Inc. (www.steptools.com) 
 */

FILE_DESCRIPTION(
/* description */ (''),
/* implementation_level */ '2;1');

FILE_NAME(
/* name */ 'C:\\Users\\ldfli\\OneDrive\\Documents\\Models\\S16-SN06-14
0.stp',
/* time_stamp */ '2019-07-09T10:49:39-05:00',
/* author */ ('ldfli'),
/* organization */ (''),
/* preprocessor_version */ 'ST-DEVELOPER v18',
/* originating_system */ 'Autodesk Inventor LT',
/* authorisation */ '');

FILE_SCHEMA (('AUTOMOTIVE_DESIGN { 1 0 10303 214 3 1 1 }'));
ENDSEC;

DATA;
#10=MECHANICAL_DESIGN_GEOMETRIC_PRESENTATION_REPRESENTATION('',(#13),#407);
#11=SHAPE_REPRESENTATION_RELATIONSHIP('SRR','None',#414,#12);
#12=ADVANCED_BREP_SHAPE_REPRESENTATION('',(#14),#406);
#13=STYLED_ITEM('',(#423),#14);
#14=MANIFOLD_SOLID_BREP('Solid1',#211);
#15=TOROIDAL_SURFACE('',#255,3.54103543328512,0.999999999999992);
#16=FACE_BOUND('',#35,.T.);
#17=PLANE('',#242);
#18=CYLINDRICAL_SURFACE('',#236,3.49999999999999);
#19=CYLINDRICAL_SURFACE('',#248,7.99999999999999);
#20=CYLINDRICAL_SURFACE('',#263,3.);
#21=FACE_OUTER_BOUND('',#31,.T.);
#22=FACE_OUTER_BOUND('',#32,.T.);
#23=FACE_OUTER_BOUND('',#33,.T.);
#24=FACE_OUTER_BOUND('',#34,.T.);
#25=FACE_OUTER_BOUND('',#36,.T.);
#26=FACE_OUTER_BOUND('',#37,.T.);
#27=FACE_OUTER_BOUND('',#38,.T.);
#28=FACE_OUTER_BOUND('',#39,.T.);
#29=FACE_OUTER_BOUND('',#40,.T.);
#30=FACE_OUTER_BOUND('',#41,.T.);
#31=EDGE_LOOP('',(#134,#135,#136,#137,#138,#139));
#32=EDGE_LOOP('',(#140,#141,#142,#143,#144,#145));
#33=EDGE_LOOP('',(#146,#147,#148,#149,#150,#151));
#34=EDGE_LOOP('',(#152,#153));
#35=EDGE_LOOP('',(#154,#155));
#36=EDGE_LOOP('',(#156,#157,#158,#159,#160,#161));
#37=EDGE_LOOP('',(#162,#163,#164,#165,#166,#167));
#38=EDGE_LOOP('',(#168,#169,#170,#171,#172,#173,#174));
#39=EDGE_LOOP('',(#175,#176,#177,#178,#179,#180,#181,#182));
#40=EDGE_LOOP('',(#183,#184,#185,#186,#187,#188,#189));
#41=EDGE_LOOP('',(#190,#191,#192,#193,#194,#195));
#42=LINE('',#346,#50);
#43=LINE('',#353,#51);
#44=LINE('',#359,#52);
#45=LINE('',#373,#53);
#46=LINE('',#379,#54);
#47=LINE('',#386,#55);
#48=LINE('',#398,#56);
#49=LINE('',#403,#57);
#50=VECTOR('',#270,3.25000000000001);
#51=VECTOR('',#279,3.49999999999999);
#52=VECTOR('',#286,3.64433756729738);
#53=VECTOR('',#303,7.49999999999999);
#54=VECTOR('',#310,7.99999999999999);
#55=VECTOR('',#317,6.26983248401984);
#56=VECTOR('',#332,3.28848861718373);
#57=VECTOR('',#339,3.);
#58=CIRCLE('',#232,3.);
#59=CIRCLE('',#233,3.50000000000001);
#60=CIRCLE('',#234,3.50000000000001);
#61=CIRCLE('',#235,3.);
#62=CIRCLE('',#237,3.49999999999997);
#63=CIRCLE('',#238,3.49999999999997);
#64=CIRCLE('',#240,3.78867513459478);
#65=CIRCLE('',#241,3.78867513459478);
#66=CIRCLE('',#243,6.99999999999999);
#67=CIRCLE('',#244,6.99999999999999);
#68=CIRCLE('',#246,7.99999999999999);
#69=CIRCLE('',#247,7.99999999999999);
#70=CIRCLE('',#249,7.99999999999999);
#71=CIRCLE('',#250,7.99999999999999);
#72=CIRCLE('',#252,4.5396649680397);
#73=CIRCLE('',#253,4.5396649680397);
#74=CIRCLE('',#254,4.5396649680397);
#75=CIRCLE('',#256,3.57697723436746);
#76=CIRCLE('',#257,3.57697723436746);
#77=CIRCLE('',#258,3.57697723436746);
#78=CIRCLE('',#259,0.999999999999992);
#79=CIRCLE('',#261,3.00000000000001);
#80=CIRCLE('',#262,3.00000000000001);
#81=VERTEX_POINT('',#342);
#82=VERTEX_POINT('',#343);
#83=VERTEX_POINT('',#345);
#84=VERTEX_POINT('',#347);
#85=VERTEX_POINT('',#352);
#86=VERTEX_POINT('',#354);
#87=VERTEX_POINT('',#358);
#88=VERTEX_POINT('',#360);
#89=VERTEX_POINT('',#364);
#90=VERTEX_POINT('',#365);
#91=VERTEX_POINT('',#369);
#92=VERTEX_POINT('',#370);
#93=VERTEX_POINT('',#375);
#94=VERTEX_POINT('',#376);
#95=VERTEX_POINT('',#381);
#96=VERTEX_POINT('',#382);
#97=VERTEX_POINT('',#384);
#98=VERTEX_POINT('',#389);
#99=VERTEX_POINT('',#390);
#100=VERTEX_POINT('',#392);
#101=VERTEX_POINT('',#397);
#102=VERTEX_POINT('',#399);
#103=EDGE_CURVE('',#81,#82,#58,.T.);
#104=EDGE_CURVE('',#82,#83,#42,.T.);
#105=EDGE_CURVE('',#84,#83,#59,.T.);
#106=EDGE_CURVE('',#83,#84,#60,.T.);
#107=EDGE_CURVE('',#82,#81,#61,.T.);
#108=EDGE_CURVE('',#83,#85,#43,.T.);
#109=EDGE_CURVE('',#86,#85,#62,.T.);
#110=EDGE_CURVE('',#85,#86,#63,.T.);
#111=EDGE_CURVE('',#85,#87,#44,.T.);
#112=EDGE_CURVE('',#88,#87,#64,.T.);
#113=EDGE_CURVE('',#87,#88,#65,.T.);
#114=EDGE_CURVE('',#89,#90,#66,.T.);
#115=EDGE_CURVE('',#90,#89,#67,.T.);
#116=EDGE_CURVE('',#91,#92,#68,.T.);
#117=EDGE_CURVE('',#92,#91,#69,.T.);
#118=EDGE_CURVE('',#92,#90,#45,.T.);
#119=EDGE_CURVE('',#93,#94,#70,.T.);
#120=EDGE_CURVE('',#94,#93,#71,.T.);
#121=EDGE_CURVE('',#94,#92,#46,.T.);
#122=EDGE_CURVE('',#95,#96,#72,.T.);
#123=EDGE_CURVE('',#97,#95,#73,.T.);
#124=EDGE_CURVE('',#97,#94,#47,.T.);
#125=EDGE_CURVE('',#96,#97,#74,.T.);
#126=EDGE_CURVE('',#98,#99,#75,.T.);
#127=EDGE_CURVE('',#100,#98,#76,.T.);
#128=EDGE_CURVE('',#99,#100,#77,.T.);
#129=EDGE_CURVE('',#99,#96,#78,.T.);
#130=EDGE_CURVE('',#100,#101,#48,.T.);
#131=EDGE_CURVE('',#102,#101,#79,.T.);
#132=EDGE_CURVE('',#101,#102,#80,.T.);
#133=EDGE_CURVE('',#101,#82,#49,.T.);
#134=ORIENTED_EDGE('',*,*,#103,.T.);
#135=ORIENTED_EDGE('',*,*,#104,.T.);
#136=ORIENTED_EDGE('',*,*,#105,.F.);
#137=ORIENTED_EDGE('',*,*,#106,.F.);
#138=ORIENTED_EDGE('',*,*,#104,.F.);
#139=ORIENTED_EDGE('',*,*,#107,.T.);
#140=ORIENTED_EDGE('',*,*,#105,.T.);
#141=ORIENTED_EDGE('',*,*,#108,.T.);
#142=ORIENTED_EDGE('',*,*,#109,.F.);
#143=ORIENTED_EDGE('',*,*,#110,.F.);
#144=ORIENTED_EDGE('',*,*,#108,.F.);
#145=ORIENTED_EDGE('',*,*,#106,.T.);
#146=ORIENTED_EDGE('',*,*,#109,.T.);
#147=ORIENTED_EDGE('',*,*,#111,.T.);
#148=ORIENTED_EDGE('',*,*,#112,.F.);
#149=ORIENTED_EDGE('',*,*,#113,.F.);
#150=ORIENTED_EDGE('',*,*,#111,.F.);
#151=ORIENTED_EDGE('',*,*,#110,.T.);
#152=ORIENTED_EDGE('',*,*,#114,.F.);
#153=ORIENTED_EDGE('',*,*,#115,.F.);
#154=ORIENTED_EDGE('',*,*,#112,.T.);
#155=ORIENTED_EDGE('',*,*,#113,.T.);
#156=ORIENTED_EDGE('',*,*,#116,.F.);
#157=ORIENTED_EDGE('',*,*,#117,.F.);
#158=ORIENTED_EDGE('',*,*,#118,.T.);
#159=ORIENTED_EDGE('',*,*,#115,.T.);
#160=ORIENTED_EDGE('',*,*,#114,.T.);
#161=ORIENTED_EDGE('',*,*,#118,.F.);
#162=ORIENTED_EDGE('',*,*,#119,.F.);
#163=ORIENTED_EDGE('',*,*,#120,.F.);
#164=ORIENTED_EDGE('',*,*,#121,.T.);
#165=ORIENTED_EDGE('',*,*,#117,.T.);
#166=ORIENTED_EDGE('',*,*,#116,.T.);
#167=ORIENTED_EDGE('',*,*,#121,.F.);
#168=ORIENTED_EDGE('',*,*,#122,.F.);
#169=ORIENTED_EDGE('',*,*,#123,.F.);
#170=ORIENTED_EDGE('',*,*,#124,.T.);
#171=ORIENTED_EDGE('',*,*,#120,.T.);
#172=ORIENTED_EDGE('',*,*,#119,.T.);
#173=ORIENTED_EDGE('',*,*,#124,.F.);
#174=ORIENTED_EDGE('',*,*,#125,.F.);
#175=ORIENTED_EDGE('',*,*,#126,.F.);
#176=ORIENTED_EDGE('',*,*,#127,.F.);
#177=ORIENTED_EDGE('',*,*,#128,.F.);
#178=ORIENTED_EDGE('',*,*,#129,.T.);
#179=ORIENTED_EDGE('',*,*,#125,.T.);
#180=ORIENTED_EDGE('',*,*,#123,.T.);
#181=ORIENTED_EDGE('',*,*,#122,.T.);
#182=ORIENTED_EDGE('',*,*,#129,.F.);
#183=ORIENTED_EDGE('',*,*,#126,.T.);
#184=ORIENTED_EDGE('',*,*,#128,.T.);
#185=ORIENTED_EDGE('',*,*,#130,.T.);
#186=ORIENTED_EDGE('',*,*,#131,.F.);
#187=ORIENTED_EDGE('',*,*,#132,.F.);
#188=ORIENTED_EDGE('',*,*,#130,.F.);
#189=ORIENTED_EDGE('',*,*,#127,.T.);
#190=ORIENTED_EDGE('',*,*,#131,.T.);
#191=ORIENTED_EDGE('',*,*,#133,.T.);
#192=ORIENTED_EDGE('',*,*,#103,.F.);
#193=ORIENTED_EDGE('',*,*,#107,.F.);
#194=ORIENTED_EDGE('',*,*,#133,.F.);
#195=ORIENTED_EDGE('',*,*,#132,.T.);
#196=CONICAL_SURFACE('',#231,3.25000000000001,1.04719755119645);
#197=CONICAL_SURFACE('',#239,3.64433756729738,0.523598775598298);
#198=CONICAL_SURFACE('',#245,7.49999999999999,0.785398163397448);
#199=CONICAL_SURFACE('',#251,6.26983248401984,0.0523598775598294);
#200=CONICAL_SURFACE('',#260,3.28848861718373,0.523598775598299);
#201=ADVANCED_FACE('',(#21),#196,.F.);
#202=ADVANCED_FACE('',(#22),#18,.F.);
#203=ADVANCED_FACE('',(#23),#197,.F.);
#204=ADVANCED_FACE('',(#24,#16),#17,.T.);
#205=ADVANCED_FACE('',(#25),#198,.T.);
#206=ADVANCED_FACE('',(#26),#19,.T.);
#207=ADVANCED_FACE('',(#27),#199,.T.);
#208=ADVANCED_FACE('',(#28),#15,.T.);
#209=ADVANCED_FACE('',(#29),#200,.F.);
#210=ADVANCED_FACE('',(#30),#20,.F.);
#211=CLOSED_SHELL('',(#201,#202,#203,#204,#205,#206,#207,#208,#209,#210));
#212=DERIVED_UNIT_ELEMENT(#214,1.);
#213=DERIVED_UNIT_ELEMENT(#409,3.);
#214=(
MASS_UNIT()
NAMED_UNIT(*)
SI_UNIT($,.GRAM.)
);
#215=DERIVED_UNIT((#212,#213));
#216=MEASURE_REPRESENTATION_ITEM('density measure',
POSITIVE_RATIO_MEASURE(1.),#215);
#217=PROPERTY_DEFINITION_REPRESENTATION(#222,#219);
#218=PROPERTY_DEFINITION_REPRESENTATION(#223,#220);
#219=REPRESENTATION('material name',(#221),#406);
#220=REPRESENTATION('density',(#216),#406);
#221=DESCRIPTIVE_REPRESENTATION_ITEM('Generic','Generic');
#222=PROPERTY_DEFINITION('material property','material name',#416);
#223=PROPERTY_DEFINITION('material property','density of part',#416);
#224=DATE_TIME_ROLE('creation_date');
#225=APPLIED_DATE_AND_TIME_ASSIGNMENT(#226,#224,(#416));
#226=DATE_AND_TIME(#227,#228);
#227=CALENDAR_DATE(2019,9,7);
#228=LOCAL_TIME(15,18,1.,#229);
#229=COORDINATED_UNIVERSAL_TIME_OFFSET(0,0,.BEHIND.);
#230=AXIS2_PLACEMENT_3D('placement',#340,#264,#265);
#231=AXIS2_PLACEMENT_3D('',#341,#266,#267);
#232=AXIS2_PLACEMENT_3D('',#344,#268,#269);
#233=AXIS2_PLACEMENT_3D('',#348,#271,#272);
#234=AXIS2_PLACEMENT_3D('',#349,#273,#274);
#235=AXIS2_PLACEMENT_3D('',#350,#275,#276);
#236=AXIS2_PLACEMENT_3D('',#351,#277,#278);
#237=AXIS2_PLACEMENT_3D('',#355,#280,#281);
#238=AXIS2_PLACEMENT_3D('',#356,#282,#283);
#239=AXIS2_PLACEMENT_3D('',#357,#284,#285);
#240=AXIS2_PLACEMENT_3D('',#361,#287,#288);
#241=AXIS2_PLACEMENT_3D('',#362,#289,#290);
#242=AXIS2_PLACEMENT_3D('',#363,#291,#292);
#243=AXIS2_PLACEMENT_3D('',#366,#293,#294);
#244=AXIS2_PLACEMENT_3D('',#367,#295,#296);
#245=AXIS2_PLACEMENT_3D('',#368,#297,#298);
#246=AXIS2_PLACEMENT_3D('',#371,#299,#300);
#247=AXIS2_PLACEMENT_3D('',#372,#301,#302);
#248=AXIS2_PLACEMENT_3D('',#374,#304,#305);
#249=AXIS2_PLACEMENT_3D('',#377,#306,#307);
#250=AXIS2_PLACEMENT_3D('',#378,#308,#309);
#251=AXIS2_PLACEMENT_3D('',#380,#311,#312);
#252=AXIS2_PLACEMENT_3D('',#383,#313,#314);
#253=AXIS2_PLACEMENT_3D('',#385,#315,#316);
#254=AXIS2_PLACEMENT_3D('',#387,#318,#319);
#255=AXIS2_PLACEMENT_3D('',#388,#320,#321);
#256=AXIS2_PLACEMENT_3D('',#391,#322,#323);
#257=AXIS2_PLACEMENT_3D('',#393,#324,#325);
#258=AXIS2_PLACEMENT_3D('',#394,#326,#327);
#259=AXIS2_PLACEMENT_3D('',#395,#328,#329);
#260=AXIS2_PLACEMENT_3D('',#396,#330,#331);
#261=AXIS2_PLACEMENT_3D('',#400,#333,#334);
#262=AXIS2_PLACEMENT_3D('',#401,#335,#336);
#263=AXIS2_PLACEMENT_3D('',#402,#337,#338);
#264=DIRECTION('axis',(0.,0.,1.));
#265=DIRECTION('refdir',(1.,0.,0.));
#266=DIRECTION('center_axis',(-1.,1.83362585669047E-17,0.));
#267=DIRECTION('ref_axis',(1.84314369322536E-17,1.,0.));
#268=DIRECTION('center_axis',(1.,-1.83362585669047E-17,0.));
#269=DIRECTION('ref_axis',(0.,0.,-1.));
#270=DIRECTION('',(-0.500000000000125,-0.866025403784367,-1.06057523872482E-16));
#271=DIRECTION('center_axis',(1.,-1.83362585669047E-17,0.));
#272=DIRECTION('ref_axis',(0.,0.,-1.));
#273=DIRECTION('center_axis',(1.,-1.83362585669047E-17,0.));
#274=DIRECTION('ref_axis',(0.,0.,-1.));
#275=DIRECTION('center_axis',(1.,-1.83362585669047E-17,0.));
#276=DIRECTION('ref_axis',(0.,0.,-1.));
#277=DIRECTION('center_axis',(1.,-1.83362585669047E-17,0.));
#278=DIRECTION('ref_axis',(1.84314369322536E-17,1.,0.));
#279=DIRECTION('',(-1.,1.83362585669047E-17,0.));
#280=DIRECTION('center_axis',(1.,-1.83362585669047E-17,0.));
#281=DIRECTION('ref_axis',(0.,0.,-1.));
#282=DIRECTION('center_axis',(1.,-1.83362585669047E-17,0.));
#283=DIRECTION('ref_axis',(0.,0.,-1.));
#284=DIRECTION('center_axis',(-1.,1.83362585669047E-17,0.));
#285=DIRECTION('ref_axis',(1.84314369322536E-17,1.,0.));
#286=DIRECTION('',(-0.866025403784439,-0.499999999999999,-6.12323399573676E-17));
#287=DIRECTION('center_axis',(1.,-1.83362585669047E-17,0.));
#288=DIRECTION('ref_axis',(0.,0.,-1.));
#289=DIRECTION('center_axis',(1.,-1.83362585669047E-17,0.));
#290=DIRECTION('ref_axis',(0.,0.,-1.));
#291=DIRECTION('center_axis',(-1.,1.83362585669047E-17,0.));
#292=DIRECTION('ref_axis',(0.,0.,1.));
#293=DIRECTION('center_axis',(1.,-1.83362585669047E-17,0.));
#294=DIRECTION('ref_axis',(0.,0.,-1.));
#295=DIRECTION('center_axis',(1.,-1.83362585669047E-17,0.));
#296=DIRECTION('ref_axis',(0.,0.,-1.));
#297=DIRECTION('center_axis',(1.,-1.83362585669047E-17,0.));
#298=DIRECTION('ref_axis',(1.84314369322536E-17,1.,0.));
#299=DIRECTION('center_axis',(1.,-1.83362585669047E-17,0.));
#300=DIRECTION('ref_axis',(0.,0.,-1.));
#301=DIRECTION('center_axis',(1.,-1.83362585669047E-17,0.));
#302=DIRECTION('ref_axis',(0.,0.,-1.));
#303=DIRECTION('',(-0.707106781186548,0.707106781186547,8.65956056235493E-17));
#304=DIRECTION('center_axis',(1.,-1.83362585669047E-17,0.));
#305=DIRECTION('ref_axis',(1.84314369322536E-17,1.,0.));
#306=DIRECTION('center_axis',(1.,-1.83362585669047E-17,0.));
#307=DIRECTION('ref_axis',(0.,0.,-1.));
#308=DIRECTION('center_axis',(1.,-1.83362585669047E-17,0.));
#309=DIRECTION('ref_axis',(0.,0.,-1.));
#310=DIRECTION('',(-1.,1.83362585669047E-17,0.));
#311=DIRECTION('center_axis',(-1.,1.83362585669047E-17,0.));
#312=DIRECTION('ref_axis',(1.84314369322536E-17,1.,0.));
#313=DIRECTION('center_axis',(1.,-1.83362585669047E-17,0.));
#314=DIRECTION('ref_axis',(0.,0.,-1.));
#315=DIRECTION('center_axis',(1.,-1.83362585669047E-17,0.));
#316=DIRECTION('ref_axis',(0.,0.,-1.));
#317=DIRECTION('',(-0.998629534754574,-0.0523359562429433,-6.40930612932365E-18));
#318=DIRECTION('center_axis',(1.,-1.83362585669047E-17,0.));
#319=DIRECTION('ref_axis',(0.,0.,-1.));
#320=DIRECTION('center_axis',(1.,-1.83362585669047E-17,0.));
#321=DIRECTION('ref_axis',(0.,0.,-1.));
#322=DIRECTION('center_axis',(1.,-1.83362585669047E-17,0.));
#323=DIRECTION('ref_axis',(0.,0.,-1.));
#324=DIRECTION('center_axis',(1.,-1.83362585669047E-17,0.));
#325=DIRECTION('ref_axis',(0.,0.,-1.));
#326=DIRECTION('center_axis',(1.,-1.83362585669047E-17,0.));
#327=DIRECTION('ref_axis',(0.,0.,-1.));
#328=DIRECTION('center_axis',(-1.83362585669047E-17,-1.,-1.22464679914735E-16));
#329=DIRECTION('ref_axis',(0.,-1.22464679914735E-16,1.));
#330=DIRECTION('center_axis',(1.,-1.83362585669047E-17,0.));
#331=DIRECTION('ref_axis',(1.84314369322536E-17,1.,0.));
#332=DIRECTION('',(-0.866025403784439,0.5,6.12323399573676E-17));
#333=DIRECTION('center_axis',(1.,-1.83362585669047E-17,0.));
#334=DIRECTION('ref_axis',(0.,0.,-1.));
#335=DIRECTION('center_axis',(1.,-1.83362585669047E-17,0.));
#336=DIRECTION('ref_axis',(0.,0.,-1.));
#337=DIRECTION('center_axis',(1.,-1.83362585669047E-17,0.));
#338=DIRECTION('ref_axis',(1.84314369322536E-17,1.,0.));
#339=DIRECTION('',(-1.,1.83362585669047E-17,0.));
#340=CARTESIAN_POINT('',(0.,0.,0.));
#341=CARTESIAN_POINT('Origin',(118.144337567297,5.41209274006757E-17,0.));
#342=CARTESIAN_POINT('',(118.288675134595,3.,0.));
#343=CARTESIAN_POINT('',(118.288675134595,-3.,-3.67394039744206E-16));
#344=CARTESIAN_POINT('Origin',(118.288675134595,5.14743164457915E-17,0.));
#345=CARTESIAN_POINT('',(118.,-3.50000000000001,-4.28626379701575E-16));
#346=CARTESIAN_POINT('',(118.144337567297,-3.25000000000001,-3.98010209722891E-16));
#347=CARTESIAN_POINT('',(118.,3.50000000000001,0.));
#348=CARTESIAN_POINT('Origin',(118.,5.67675383555599E-17,0.));
#349=CARTESIAN_POINT('Origin',(118.,5.67675383555599E-17,0.));
#350=CARTESIAN_POINT('Origin',(118.288675134595,5.14743164457915E-17,0.));
#351=CARTESIAN_POINT('Origin',(59.2500000000001,1.13402272916121E-15,0.));
#352=CARTESIAN_POINT('',(0.500000000000194,-3.49999999999999,-4.28626379701573E-16));
#353=CARTESIAN_POINT('',(59.2500000000001,-3.49999999999999,-4.28626379701573E-16));
#354=CARTESIAN_POINT('',(0.500000000000178,3.49999999999997,0.));
#355=CARTESIAN_POINT('Origin',(0.500000000000185,2.21127791996686E-15,0.));
#356=CARTESIAN_POINT('Origin',(0.500000000000185,2.21127791996686E-15,0.));
#357=CARTESIAN_POINT('Origin',(0.250000000000181,2.21586198460858E-15,0.));
#358=CARTESIAN_POINT('',(1.78329573330416E-13,-3.78867513459478,-4.63978887659067E-16));
#359=CARTESIAN_POINT('',(0.250000000000181,-3.64433756729737,-4.46302633680318E-16));
#360=CARTESIAN_POINT('',(1.77635683940025E-13,3.78867513459478,0.));
#361=CARTESIAN_POINT('Origin',(1.77635683940025E-13,2.22044604925031E-15,
0.));
#362=CARTESIAN_POINT('Origin',(1.77635683940025E-13,2.22044604925031E-15,
0.));
#363=CARTESIAN_POINT('Origin',(3.5527136788005E-14,7.,0.));
#364=CARTESIAN_POINT('',(3.5527136788005E-14,7.,0.));
#365=CARTESIAN_POINT('',(3.87190279838023E-14,-6.99999999999999,-8.57252759403146E-16));
#366=CARTESIAN_POINT('Origin',(3.5527136788005E-14,2.22044604925031E-15,
0.));
#367=CARTESIAN_POINT('Origin',(3.5527136788005E-14,2.22044604925031E-15,
0.));
#368=CARTESIAN_POINT('Origin',(0.500000000000043,2.21127791996686E-15,0.));
#369=CARTESIAN_POINT('',(1.00000000000004,8.,0.));
#370=CARTESIAN_POINT('',(1.00000000000004,-7.99999999999999,-9.79717439317881E-16));
#371=CARTESIAN_POINT('Origin',(1.00000000000003,2.20210979068341E-15,0.));
#372=CARTESIAN_POINT('Origin',(1.00000000000003,2.20210979068341E-15,0.));
#373=CARTESIAN_POINT('',(0.500000000000043,-7.49999999999999,-9.18485099360514E-16));
#374=CARTESIAN_POINT('Origin',(37.0126051130368,1.54177335166293E-15,0.));
#375=CARTESIAN_POINT('',(73.0252102260736,7.99999999999999,0.));
#376=CARTESIAN_POINT('',(73.0252102260736,-7.99999999999999,-9.79717439317882E-16));
#377=CARTESIAN_POINT('Origin',(73.0252102260736,8.81436912642455E-16,0.));
#378=CARTESIAN_POINT('Origin',(73.0252102260736,8.81436912642455E-16,0.));
#379=CARTESIAN_POINT('',(37.0126051130368,-7.99999999999999,-9.79717439317882E-16));
#380=CARTESIAN_POINT('Origin',(106.038773091158,2.760916877335E-16,0.));
#381=CARTESIAN_POINT('',(139.052335956243,4.5396649680397,0.));
#382=CARTESIAN_POINT('',(139.052335956243,-8.85202154406574E-16,4.5396649680397));
#383=CARTESIAN_POINT('Origin',(139.052335956243,-3.29253537175455E-16,0.));
#384=CARTESIAN_POINT('',(139.052335956243,-4.5396649680397,-5.55948617231119E-16));
#385=CARTESIAN_POINT('Origin',(139.052335956243,-3.29253537175455E-16,0.));
#386=CARTESIAN_POINT('',(106.038773091158,-6.26983248401984,-7.678330282745E-16));
#387=CARTESIAN_POINT('Origin',(139.052335956243,-3.29253537175455E-16,0.));
#388=CARTESIAN_POINT('Origin',(139.,-3.28293891549438E-16,0.));
#389=CARTESIAN_POINT('',(139.999353884735,3.57697723436746,0.));
#390=CARTESIAN_POINT('',(139.999353884735,-7.84671674848887E-16,3.57697723436746));
#391=CARTESIAN_POINT('Origin',(139.999353884735,-3.4661830277978E-16,0.));
#392=CARTESIAN_POINT('',(139.999353884735,-3.57697723436746,-4.38053372069106E-16));
#393=CARTESIAN_POINT('Origin',(139.999353884735,-3.4661830277978E-16,0.));
#394=CARTESIAN_POINT('Origin',(139.999353884735,-3.4661830277978E-16,0.));
#395=CARTESIAN_POINT('Origin',(139.,-7.61945662453437E-16,3.54103543328512));
#396=CARTESIAN_POINT('Origin',(139.499676942368,-3.37456097164609E-16,0.));
#397=CARTESIAN_POINT('',(139.,-3.00000000000001,-3.67394039744207E-16));
#398=CARTESIAN_POINT('',(139.499676942368,-3.28848861718373,-4.02723705906657E-16));
#399=CARTESIAN_POINT('',(139.,3.00000000000001,0.));
#400=CARTESIAN_POINT('Origin',(139.,-3.28293891549438E-16,0.));
#401=CARTESIAN_POINT('Origin',(139.,-3.28293891549438E-16,0.));
#402=CARTESIAN_POINT('Origin',(128.644337567297,-1.38409787551823E-16,0.));
#403=CARTESIAN_POINT('',(128.644337567297,-3.,-3.67394039744206E-16));
#404=UNCERTAINTY_MEASURE_WITH_UNIT(LENGTH_MEASURE(0.01),#408,
'DISTANCE_ACCURACY_VALUE',
'Maximum model space distance between geometric entities at asserted c
onnectivities');
#405=UNCERTAINTY_MEASURE_WITH_UNIT(LENGTH_MEASURE(0.01),#408,
'DISTANCE_ACCURACY_VALUE',
'Maximum model space distance between geometric entities at asserted c
onnectivities');
#406=(
GEOMETRIC_REPRESENTATION_CONTEXT(3)
GLOBAL_UNCERTAINTY_ASSIGNED_CONTEXT((#404))
GLOBAL_UNIT_ASSIGNED_CONTEXT((#408,#410,#411))
REPRESENTATION_CONTEXT('','3D')
);
#407=(
GEOMETRIC_REPRESENTATION_CONTEXT(3)
GLOBAL_UNCERTAINTY_ASSIGNED_CONTEXT((#405))
GLOBAL_UNIT_ASSIGNED_CONTEXT((#408,#410,#411))
REPRESENTATION_CONTEXT('','3D')
);
#408=(
LENGTH_UNIT()
NAMED_UNIT(*)
SI_UNIT(.MILLI.,.METRE.)
);
#409=(
LENGTH_UNIT()
NAMED_UNIT(*)
SI_UNIT(.CENTI.,.METRE.)
);
#410=(
NAMED_UNIT(*)
PLANE_ANGLE_UNIT()
SI_UNIT($,.RADIAN.)
);
#411=(
NAMED_UNIT(*)
SI_UNIT($,.STERADIAN.)
SOLID_ANGLE_UNIT()
);
#412=SHAPE_DEFINITION_REPRESENTATION(#413,#414);
#413=PRODUCT_DEFINITION_SHAPE('',$,#416);
#414=SHAPE_REPRESENTATION('',(#230),#406);
#415=PRODUCT_DEFINITION_CONTEXT('part definition',#420,'design');
#416=PRODUCT_DEFINITION('S16-SN06-140','S16-SN06-140',#417,#415);
#417=PRODUCT_DEFINITION_FORMATION('',$,#422);
#418=PRODUCT_RELATED_PRODUCT_CATEGORY('S16-SN06-140','S16-SN06-140',(#422));
#419=APPLICATION_PROTOCOL_DEFINITION('international standard',
'automotive_design',2009,#420);
#420=APPLICATION_CONTEXT(
'Core Data for Automotive Mechanical Design Process');
#421=PRODUCT_CONTEXT('part definition',#420,'mechanical');
#422=PRODUCT('S16-SN06-140','S16-SN06-140',$,(#421));
#423=PRESENTATION_STYLE_ASSIGNMENT((#424));
#424=SURFACE_STYLE_USAGE(.BOTH.,#427);
#425=SURFACE_STYLE_RENDERING_WITH_PROPERTIES($,#431,(#426));
#426=SURFACE_STYLE_TRANSPARENT(0.);
#427=SURFACE_SIDE_STYLE('',(#428,#425));
#428=SURFACE_STYLE_FILL_AREA(#429);
#429=FILL_AREA_STYLE('',(#430));
#430=FILL_AREA_STYLE_COLOUR('',#431);
#431=COLOUR_RGB('',0.749019607843137,0.749019607843137,0.749019607843137);
ENDSEC;
END-ISO-10303-21;
