ISO-10303-21;
HEADER;
/* Generated by software containing ST-Developer
 * from STEP Tools, Inc. (www.steptools.com) 
 */

FILE_DESCRIPTION(
/* description */ (''),
/* implementation_level */ '2;1');

FILE_NAME(
/* name */ 'C:\\Users\\ldfli\\OneDrive\\Documents\\Models\\S12-SD04-16
0.stp',
/* time_stamp */ '2019-07-09T10:31:06-05:00',
/* author */ ('ldfli'),
/* organization */ (''),
/* preprocessor_version */ 'ST-DEVELOPER v18',
/* originating_system */ 'Autodesk Inventor LT',
/* authorisation */ '');

FILE_SCHEMA (('AUTOMOTIVE_DESIGN { 1 0 10303 214 3 1 1 }'));
ENDSEC;

DATA;
#10=MECHANICAL_DESIGN_GEOMETRIC_PRESENTATION_REPRESENTATION('',(#13),#427);
#11=SHAPE_REPRESENTATION_RELATIONSHIP('SRR','None',#434,#12);
#12=ADVANCED_BREP_SHAPE_REPRESENTATION('',(#14),#426);
#13=STYLED_ITEM('',(#443),#14);
#14=MANIFOLD_SOLID_BREP('Solid1',#222);
#15=FACE_BOUND('',#39,.T.);
#16=FACE_BOUND('',#46,.T.);
#17=PLANE('',#258);
#18=PLANE('',#276);
#19=TOROIDAL_SURFACE('',#254,3.0756095083418,0.999999999999992);
#20=CYLINDRICAL_SURFACE('',#247,5.99999999999999);
#21=CYLINDRICAL_SURFACE('',#264,1.99999999999999);
#22=CYLINDRICAL_SURFACE('',#270,2.49999999999998);
#23=FACE_OUTER_BOUND('',#34,.T.);
#24=FACE_OUTER_BOUND('',#35,.T.);
#25=FACE_OUTER_BOUND('',#36,.T.);
#26=FACE_OUTER_BOUND('',#37,.T.);
#27=FACE_OUTER_BOUND('',#38,.T.);
#28=FACE_OUTER_BOUND('',#40,.T.);
#29=FACE_OUTER_BOUND('',#41,.T.);
#30=FACE_OUTER_BOUND('',#42,.T.);
#31=FACE_OUTER_BOUND('',#43,.T.);
#32=FACE_OUTER_BOUND('',#44,.T.);
#33=FACE_OUTER_BOUND('',#45,.T.);
#34=EDGE_LOOP('',(#142,#143,#144,#145,#146,#147));
#35=EDGE_LOOP('',(#148,#149,#150,#151,#152,#153));
#36=EDGE_LOOP('',(#154,#155,#156,#157,#158,#159,#160));
#37=EDGE_LOOP('',(#161,#162,#163,#164,#165,#166,#167));
#38=EDGE_LOOP('',(#168,#169));
#39=EDGE_LOOP('',(#170,#171));
#40=EDGE_LOOP('',(#172,#173,#174,#175,#176,#177));
#41=EDGE_LOOP('',(#178,#179,#180,#181,#182,#183));
#42=EDGE_LOOP('',(#184,#185,#186,#187,#188,#189));
#43=EDGE_LOOP('',(#190,#191,#192,#193,#194,#195));
#44=EDGE_LOOP('',(#196,#197,#198,#199,#200,#201));
#45=EDGE_LOOP('',(#202,#203));
#46=EDGE_LOOP('',(#204,#205));
#47=LINE('',#364,#55);
#48=LINE('',#373,#56);
#49=LINE('',#380,#57);
#50=LINE('',#395,#58);
#51=LINE('',#401,#59);
#52=LINE('',#407,#60);
#53=LINE('',#413,#61);
#54=LINE('',#419,#62);
#55=VECTOR('',#285,5.49999999999999);
#56=VECTOR('',#296,5.99999999999999);
#57=VECTOR('',#303,5.03626342103746);
#58=VECTOR('',#322,2.28867513459481);
#59=VECTOR('',#329,1.99999999999999);
#60=VECTOR('',#336,2.24999999999999);
#61=VECTOR('',#343,2.49999999999998);
#62=VECTOR('',#350,2.64433756729736);
#63=CIRCLE('',#243,5.99999999999999);
#64=CIRCLE('',#244,5.99999999999999);
#65=CIRCLE('',#245,4.99999999999999);
#66=CIRCLE('',#246,4.99999999999999);
#67=CIRCLE('',#248,5.99999999999999);
#68=CIRCLE('',#249,5.99999999999999);
#69=CIRCLE('',#251,4.07252684207492);
#70=CIRCLE('',#252,4.07252684207492);
#71=CIRCLE('',#253,4.07252684207492);
#72=CIRCLE('',#255,3.07560950834179);
#73=CIRCLE('',#256,3.07560950834179);
#74=CIRCLE('',#257,0.999999999999992);
#75=CIRCLE('',#259,2.57735026918963);
#76=CIRCLE('',#260,2.57735026918963);
#77=CIRCLE('',#262,1.99999999999999);
#78=CIRCLE('',#263,1.99999999999999);
#79=CIRCLE('',#265,1.99999999999998);
#80=CIRCLE('',#266,1.99999999999998);
#81=CIRCLE('',#268,2.5);
#82=CIRCLE('',#269,2.5);
#83=CIRCLE('',#271,2.49999999999996);
#84=CIRCLE('',#272,2.49999999999996);
#85=CIRCLE('',#274,2.78867513459477);
#86=CIRCLE('',#275,2.78867513459477);
#87=VERTEX_POINT('',#359);
#88=VERTEX_POINT('',#360);
#89=VERTEX_POINT('',#363);
#90=VERTEX_POINT('',#365);
#91=VERTEX_POINT('',#369);
#92=VERTEX_POINT('',#370);
#93=VERTEX_POINT('',#375);
#94=VERTEX_POINT('',#376);
#95=VERTEX_POINT('',#378);
#96=VERTEX_POINT('',#383);
#97=VERTEX_POINT('',#384);
#98=VERTEX_POINT('',#389);
#99=VERTEX_POINT('',#390);
#100=VERTEX_POINT('',#394);
#101=VERTEX_POINT('',#396);
#102=VERTEX_POINT('',#400);
#103=VERTEX_POINT('',#402);
#104=VERTEX_POINT('',#406);
#105=VERTEX_POINT('',#408);
#106=VERTEX_POINT('',#412);
#107=VERTEX_POINT('',#414);
#108=VERTEX_POINT('',#418);
#109=VERTEX_POINT('',#420);
#110=EDGE_CURVE('',#87,#88,#63,.T.);
#111=EDGE_CURVE('',#88,#87,#64,.T.);
#112=EDGE_CURVE('',#88,#89,#47,.T.);
#113=EDGE_CURVE('',#89,#90,#65,.T.);
#114=EDGE_CURVE('',#90,#89,#66,.T.);
#115=EDGE_CURVE('',#91,#92,#67,.T.);
#116=EDGE_CURVE('',#92,#91,#68,.T.);
#117=EDGE_CURVE('',#92,#88,#48,.T.);
#118=EDGE_CURVE('',#93,#94,#69,.T.);
#119=EDGE_CURVE('',#95,#93,#70,.T.);
#120=EDGE_CURVE('',#95,#92,#49,.T.);
#121=EDGE_CURVE('',#94,#95,#71,.T.);
#122=EDGE_CURVE('',#96,#97,#72,.T.);
#123=EDGE_CURVE('',#97,#96,#73,.T.);
#124=EDGE_CURVE('',#97,#94,#74,.T.);
#125=EDGE_CURVE('',#98,#99,#75,.T.);
#126=EDGE_CURVE('',#99,#98,#76,.T.);
#127=EDGE_CURVE('',#99,#100,#50,.T.);
#128=EDGE_CURVE('',#101,#100,#77,.T.);
#129=EDGE_CURVE('',#100,#101,#78,.T.);
#130=EDGE_CURVE('',#100,#102,#51,.T.);
#131=EDGE_CURVE('',#103,#102,#79,.T.);
#132=EDGE_CURVE('',#102,#103,#80,.T.);
#133=EDGE_CURVE('',#102,#104,#52,.T.);
#134=EDGE_CURVE('',#105,#104,#81,.T.);
#135=EDGE_CURVE('',#104,#105,#82,.T.);
#136=EDGE_CURVE('',#104,#106,#53,.T.);
#137=EDGE_CURVE('',#107,#106,#83,.T.);
#138=EDGE_CURVE('',#106,#107,#84,.T.);
#139=EDGE_CURVE('',#106,#108,#54,.T.);
#140=EDGE_CURVE('',#109,#108,#85,.T.);
#141=EDGE_CURVE('',#108,#109,#86,.T.);
#142=ORIENTED_EDGE('',*,*,#110,.F.);
#143=ORIENTED_EDGE('',*,*,#111,.F.);
#144=ORIENTED_EDGE('',*,*,#112,.T.);
#145=ORIENTED_EDGE('',*,*,#113,.T.);
#146=ORIENTED_EDGE('',*,*,#114,.T.);
#147=ORIENTED_EDGE('',*,*,#112,.F.);
#148=ORIENTED_EDGE('',*,*,#115,.F.);
#149=ORIENTED_EDGE('',*,*,#116,.F.);
#150=ORIENTED_EDGE('',*,*,#117,.T.);
#151=ORIENTED_EDGE('',*,*,#111,.T.);
#152=ORIENTED_EDGE('',*,*,#110,.T.);
#153=ORIENTED_EDGE('',*,*,#117,.F.);
#154=ORIENTED_EDGE('',*,*,#118,.F.);
#155=ORIENTED_EDGE('',*,*,#119,.F.);
#156=ORIENTED_EDGE('',*,*,#120,.T.);
#157=ORIENTED_EDGE('',*,*,#116,.T.);
#158=ORIENTED_EDGE('',*,*,#115,.T.);
#159=ORIENTED_EDGE('',*,*,#120,.F.);
#160=ORIENTED_EDGE('',*,*,#121,.F.);
#161=ORIENTED_EDGE('',*,*,#122,.F.);
#162=ORIENTED_EDGE('',*,*,#123,.F.);
#163=ORIENTED_EDGE('',*,*,#124,.T.);
#164=ORIENTED_EDGE('',*,*,#121,.T.);
#165=ORIENTED_EDGE('',*,*,#119,.T.);
#166=ORIENTED_EDGE('',*,*,#118,.T.);
#167=ORIENTED_EDGE('',*,*,#124,.F.);
#168=ORIENTED_EDGE('',*,*,#122,.T.);
#169=ORIENTED_EDGE('',*,*,#123,.T.);
#170=ORIENTED_EDGE('',*,*,#125,.F.);
#171=ORIENTED_EDGE('',*,*,#126,.F.);
#172=ORIENTED_EDGE('',*,*,#125,.T.);
#173=ORIENTED_EDGE('',*,*,#127,.T.);
#174=ORIENTED_EDGE('',*,*,#128,.F.);
#175=ORIENTED_EDGE('',*,*,#129,.F.);
#176=ORIENTED_EDGE('',*,*,#127,.F.);
#177=ORIENTED_EDGE('',*,*,#126,.T.);
#178=ORIENTED_EDGE('',*,*,#128,.T.);
#179=ORIENTED_EDGE('',*,*,#130,.T.);
#180=ORIENTED_EDGE('',*,*,#131,.F.);
#181=ORIENTED_EDGE('',*,*,#132,.F.);
#182=ORIENTED_EDGE('',*,*,#130,.F.);
#183=ORIENTED_EDGE('',*,*,#129,.T.);
#184=ORIENTED_EDGE('',*,*,#131,.T.);
#185=ORIENTED_EDGE('',*,*,#133,.T.);
#186=ORIENTED_EDGE('',*,*,#134,.F.);
#187=ORIENTED_EDGE('',*,*,#135,.F.);
#188=ORIENTED_EDGE('',*,*,#133,.F.);
#189=ORIENTED_EDGE('',*,*,#132,.T.);
#190=ORIENTED_EDGE('',*,*,#134,.T.);
#191=ORIENTED_EDGE('',*,*,#136,.T.);
#192=ORIENTED_EDGE('',*,*,#137,.F.);
#193=ORIENTED_EDGE('',*,*,#138,.F.);
#194=ORIENTED_EDGE('',*,*,#136,.F.);
#195=ORIENTED_EDGE('',*,*,#135,.T.);
#196=ORIENTED_EDGE('',*,*,#137,.T.);
#197=ORIENTED_EDGE('',*,*,#139,.T.);
#198=ORIENTED_EDGE('',*,*,#140,.F.);
#199=ORIENTED_EDGE('',*,*,#141,.F.);
#200=ORIENTED_EDGE('',*,*,#139,.F.);
#201=ORIENTED_EDGE('',*,*,#138,.T.);
#202=ORIENTED_EDGE('',*,*,#114,.F.);
#203=ORIENTED_EDGE('',*,*,#113,.F.);
#204=ORIENTED_EDGE('',*,*,#140,.T.);
#205=ORIENTED_EDGE('',*,*,#141,.T.);
#206=CONICAL_SURFACE('',#242,5.49999999999999,0.785398163397448);
#207=CONICAL_SURFACE('',#250,5.03626342103746,0.0785398163397447);
#208=CONICAL_SURFACE('',#261,2.28867513459481,0.523598775598466);
#209=CONICAL_SURFACE('',#267,2.24999999999999,1.04719755119645);
#210=CONICAL_SURFACE('',#273,2.64433756729736,0.523598775598299);
#211=ADVANCED_FACE('',(#23),#206,.T.);
#212=ADVANCED_FACE('',(#24),#20,.T.);
#213=ADVANCED_FACE('',(#25),#207,.T.);
#214=ADVANCED_FACE('',(#26),#19,.T.);
#215=ADVANCED_FACE('',(#27,#15),#17,.T.);
#216=ADVANCED_FACE('',(#28),#208,.F.);
#217=ADVANCED_FACE('',(#29),#21,.F.);
#218=ADVANCED_FACE('',(#30),#209,.F.);
#219=ADVANCED_FACE('',(#31),#22,.F.);
#220=ADVANCED_FACE('',(#32),#210,.F.);
#221=ADVANCED_FACE('',(#33,#16),#18,.T.);
#222=CLOSED_SHELL('',(#211,#212,#213,#214,#215,#216,#217,#218,#219,#220,
#221));
#223=DERIVED_UNIT_ELEMENT(#225,1.);
#224=DERIVED_UNIT_ELEMENT(#429,3.);
#225=(
MASS_UNIT()
NAMED_UNIT(*)
SI_UNIT($,.GRAM.)
);
#226=DERIVED_UNIT((#223,#224));
#227=MEASURE_REPRESENTATION_ITEM('density measure',
POSITIVE_RATIO_MEASURE(1.),#226);
#228=PROPERTY_DEFINITION_REPRESENTATION(#233,#230);
#229=PROPERTY_DEFINITION_REPRESENTATION(#234,#231);
#230=REPRESENTATION('material name',(#232),#426);
#231=REPRESENTATION('density',(#227),#426);
#232=DESCRIPTIVE_REPRESENTATION_ITEM('Generic','Generic');
#233=PROPERTY_DEFINITION('material property','material name',#436);
#234=PROPERTY_DEFINITION('material property','density of part',#436);
#235=DATE_TIME_ROLE('creation_date');
#236=APPLIED_DATE_AND_TIME_ASSIGNMENT(#237,#235,(#436));
#237=DATE_AND_TIME(#238,#239);
#238=CALENDAR_DATE(2019,9,7);
#239=LOCAL_TIME(15,18,1.,#240);
#240=COORDINATED_UNIVERSAL_TIME_OFFSET(0,0,.BEHIND.);
#241=AXIS2_PLACEMENT_3D('placement',#357,#277,#278);
#242=AXIS2_PLACEMENT_3D('',#358,#279,#280);
#243=AXIS2_PLACEMENT_3D('',#361,#281,#282);
#244=AXIS2_PLACEMENT_3D('',#362,#283,#284);
#245=AXIS2_PLACEMENT_3D('',#366,#286,#287);
#246=AXIS2_PLACEMENT_3D('',#367,#288,#289);
#247=AXIS2_PLACEMENT_3D('',#368,#290,#291);
#248=AXIS2_PLACEMENT_3D('',#371,#292,#293);
#249=AXIS2_PLACEMENT_3D('',#372,#294,#295);
#250=AXIS2_PLACEMENT_3D('',#374,#297,#298);
#251=AXIS2_PLACEMENT_3D('',#377,#299,#300);
#252=AXIS2_PLACEMENT_3D('',#379,#301,#302);
#253=AXIS2_PLACEMENT_3D('',#381,#304,#305);
#254=AXIS2_PLACEMENT_3D('',#382,#306,#307);
#255=AXIS2_PLACEMENT_3D('',#385,#308,#309);
#256=AXIS2_PLACEMENT_3D('',#386,#310,#311);
#257=AXIS2_PLACEMENT_3D('',#387,#312,#313);
#258=AXIS2_PLACEMENT_3D('',#388,#314,#315);
#259=AXIS2_PLACEMENT_3D('',#391,#316,#317);
#260=AXIS2_PLACEMENT_3D('',#392,#318,#319);
#261=AXIS2_PLACEMENT_3D('',#393,#320,#321);
#262=AXIS2_PLACEMENT_3D('',#397,#323,#324);
#263=AXIS2_PLACEMENT_3D('',#398,#325,#326);
#264=AXIS2_PLACEMENT_3D('',#399,#327,#328);
#265=AXIS2_PLACEMENT_3D('',#403,#330,#331);
#266=AXIS2_PLACEMENT_3D('',#404,#332,#333);
#267=AXIS2_PLACEMENT_3D('',#405,#334,#335);
#268=AXIS2_PLACEMENT_3D('',#409,#337,#338);
#269=AXIS2_PLACEMENT_3D('',#410,#339,#340);
#270=AXIS2_PLACEMENT_3D('',#411,#341,#342);
#271=AXIS2_PLACEMENT_3D('',#415,#344,#345);
#272=AXIS2_PLACEMENT_3D('',#416,#346,#347);
#273=AXIS2_PLACEMENT_3D('',#417,#348,#349);
#274=AXIS2_PLACEMENT_3D('',#421,#351,#352);
#275=AXIS2_PLACEMENT_3D('',#422,#353,#354);
#276=AXIS2_PLACEMENT_3D('',#423,#355,#356);
#277=DIRECTION('axis',(0.,0.,1.));
#278=DIRECTION('refdir',(1.,0.,0.));
#279=DIRECTION('center_axis',(1.,2.77555756156289E-17,0.));
#280=DIRECTION('ref_axis',(0.,1.,0.));
#281=DIRECTION('center_axis',(1.,2.77555756156289E-17,0.));
#282=DIRECTION('ref_axis',(0.,0.,-1.));
#283=DIRECTION('center_axis',(1.,2.77555756156289E-17,0.));
#284=DIRECTION('ref_axis',(0.,0.,-1.));
#285=DIRECTION('',(-0.707106781186548,0.707106781186547,8.65956056235493E-17));
#286=DIRECTION('center_axis',(1.,2.77555756156289E-17,0.));
#287=DIRECTION('ref_axis',(0.,0.,-1.));
#288=DIRECTION('center_axis',(1.,2.77555756156289E-17,0.));
#289=DIRECTION('ref_axis',(0.,0.,-1.));
#290=DIRECTION('center_axis',(1.,2.77555756156289E-17,0.));
#291=DIRECTION('ref_axis',(0.,1.,0.));
#292=DIRECTION('center_axis',(1.,2.77555756156289E-17,0.));
#293=DIRECTION('ref_axis',(0.,0.,-1.));
#294=DIRECTION('center_axis',(1.,2.77555756156289E-17,0.));
#295=DIRECTION('ref_axis',(0.,0.,-1.));
#296=DIRECTION('',(-1.,-2.77555756156289E-17,0.));
#297=DIRECTION('center_axis',(-1.,-2.77555756156289E-17,0.));
#298=DIRECTION('ref_axis',(0.,1.,0.));
#299=DIRECTION('center_axis',(1.,2.77555756156289E-17,0.));
#300=DIRECTION('ref_axis',(0.,0.,-1.));
#301=DIRECTION('center_axis',(1.,2.77555756156289E-17,0.));
#302=DIRECTION('ref_axis',(0.,0.,-1.));
#303=DIRECTION('',(-0.996917333733128,-0.0784590957278449,-9.6084680447101E-18));
#304=DIRECTION('center_axis',(1.,2.77555756156289E-17,0.));
#305=DIRECTION('ref_axis',(0.,0.,-1.));
#306=DIRECTION('center_axis',(1.,2.77555756156289E-17,0.));
#307=DIRECTION('ref_axis',(0.,0.,-1.));
#308=DIRECTION('center_axis',(1.,2.77555756156289E-17,0.));
#309=DIRECTION('ref_axis',(0.,0.,-1.));
#310=DIRECTION('center_axis',(1.,2.77555756156289E-17,0.));
#311=DIRECTION('ref_axis',(0.,0.,-1.));
#312=DIRECTION('center_axis',(2.77555756156289E-17,-1.,-1.22464679914735E-16));
#313=DIRECTION('ref_axis',(0.,-1.22464679914735E-16,1.));
#314=DIRECTION('center_axis',(1.,2.77555756156289E-17,0.));
#315=DIRECTION('ref_axis',(0.,0.,-1.));
#316=DIRECTION('center_axis',(1.,2.77555756156289E-17,0.));
#317=DIRECTION('ref_axis',(0.,0.,-1.));
#318=DIRECTION('center_axis',(1.,2.77555756156289E-17,0.));
#319=DIRECTION('ref_axis',(0.,0.,-1.));
#320=DIRECTION('center_axis',(1.,2.77555756156289E-17,0.));
#321=DIRECTION('ref_axis',(0.,1.,0.));
#322=DIRECTION('',(-0.866025403784355,0.500000000000145,6.12323399573854E-17));
#323=DIRECTION('center_axis',(1.,2.77555756156289E-17,0.));
#324=DIRECTION('ref_axis',(0.,0.,-1.));
#325=DIRECTION('center_axis',(1.,2.77555756156289E-17,0.));
#326=DIRECTION('ref_axis',(0.,0.,-1.));
#327=DIRECTION('center_axis',(1.,2.77555756156289E-17,0.));
#328=DIRECTION('ref_axis',(0.,1.,0.));
#329=DIRECTION('',(-1.,-2.77555756156289E-17,0.));
#330=DIRECTION('center_axis',(1.,2.77555756156289E-17,0.));
#331=DIRECTION('ref_axis',(0.,0.,-1.));
#332=DIRECTION('center_axis',(1.,2.77555756156289E-17,0.));
#333=DIRECTION('ref_axis',(0.,0.,-1.));
#334=DIRECTION('center_axis',(-1.,-2.77555756156289E-17,0.));
#335=DIRECTION('ref_axis',(0.,1.,0.));
#336=DIRECTION('',(-0.500000000000126,-0.866025403784366,-1.06057523872482E-16));
#337=DIRECTION('center_axis',(1.,2.77555756156289E-17,0.));
#338=DIRECTION('ref_axis',(0.,0.,-1.));
#339=DIRECTION('center_axis',(1.,2.77555756156289E-17,0.));
#340=DIRECTION('ref_axis',(0.,0.,-1.));
#341=DIRECTION('center_axis',(1.,2.77555756156289E-17,0.));
#342=DIRECTION('ref_axis',(0.,1.,0.));
#343=DIRECTION('',(-1.,-2.77555756156289E-17,0.));
#344=DIRECTION('center_axis',(1.,2.77555756156289E-17,0.));
#345=DIRECTION('ref_axis',(0.,0.,-1.));
#346=DIRECTION('center_axis',(1.,2.77555756156289E-17,0.));
#347=DIRECTION('ref_axis',(0.,0.,-1.));
#348=DIRECTION('center_axis',(-1.,-2.77555756156289E-17,0.));
#349=DIRECTION('ref_axis',(0.,1.,0.));
#350=DIRECTION('',(-0.866025403784439,-0.5,-6.12323399573677E-17));
#351=DIRECTION('center_axis',(1.,2.77555756156289E-17,0.));
#352=DIRECTION('ref_axis',(0.,0.,-1.));
#353=DIRECTION('center_axis',(1.,2.77555756156289E-17,0.));
#354=DIRECTION('ref_axis',(0.,0.,-1.));
#355=DIRECTION('center_axis',(-1.,-2.77555756156289E-17,0.));
#356=DIRECTION('ref_axis',(0.,0.,1.));
#357=CARTESIAN_POINT('',(0.,0.,0.));
#358=CARTESIAN_POINT('Origin',(0.5,-2.05252481677576E-14,0.));
#359=CARTESIAN_POINT('',(1.,5.99999999999997,0.));
#360=CARTESIAN_POINT('',(1.,-6.00000000000001,-7.3478807948841E-16));
#361=CARTESIAN_POINT('Origin',(1.,-2.05113703799498E-14,0.));
#362=CARTESIAN_POINT('Origin',(1.,-2.05113703799498E-14,0.));
#363=CARTESIAN_POINT('',(-2.77555756156289E-16,-5.00000000000001,-6.12323399573675E-16));
#364=CARTESIAN_POINT('',(0.5,-5.50000000000001,-6.73555739531043E-16));
#365=CARTESIAN_POINT('',(-2.16075738043763E-17,4.99999999999997,0.));
#366=CARTESIAN_POINT('Origin',(1.17170304273768E-16,-2.05391259555654E-14,
0.));
#367=CARTESIAN_POINT('Origin',(1.17170304273768E-16,-2.05391259555654E-14,
0.));
#368=CARTESIAN_POINT('Origin',(67.7937952638253,-1.86574701448498E-14,0.));
#369=CARTESIAN_POINT('',(134.587590527651,5.99999999999997,0.));
#370=CARTESIAN_POINT('',(134.587590527651,-6.00000000000001,-7.3478807948841E-16));
#371=CARTESIAN_POINT('Origin',(134.587590527651,-1.68035699097499E-14,0.));
#372=CARTESIAN_POINT('Origin',(134.587590527651,-1.68035699097499E-14,0.));
#373=CARTESIAN_POINT('',(67.7937952638253,-6.00000000000001,-7.3478807948841E-16));
#374=CARTESIAN_POINT('Origin',(146.833024811689,-1.6463690832533E-14,0.));
#375=CARTESIAN_POINT('',(159.078459095728,4.0725268420749,0.));
#376=CARTESIAN_POINT('',(159.078459095728,-1.66225524514751E-14,4.07252684207492));
#377=CARTESIAN_POINT('Origin',(159.078459095728,-1.61238117553162E-14,0.));
#378=CARTESIAN_POINT('',(159.078459095728,-4.07252684207494,-4.98740696158873E-16));
#379=CARTESIAN_POINT('Origin',(159.078459095728,-1.61238117553162E-14,0.));
#380=CARTESIAN_POINT('',(146.833024811689,-5.03626342103747,-6.16764387823642E-16));
#381=CARTESIAN_POINT('Origin',(159.078459095728,-1.61238117553162E-14,0.));
#382=CARTESIAN_POINT('Origin',(159.,-1.61259894326804E-14,0.));
#383=CARTESIAN_POINT('',(160.,3.07560950834178,0.));
#384=CARTESIAN_POINT('',(160.,-1.64748873910466E-14,3.07560950834179));
#385=CARTESIAN_POINT('Origin',(160.,-1.60982338570648E-14,0.));
#386=CARTESIAN_POINT('Origin',(160.,-1.60982338570648E-14,0.));
#387=CARTESIAN_POINT('Origin',(159.,-1.65026429666622E-14,3.0756095083418));
#388=CARTESIAN_POINT('Origin',(160.,2.57735026918961,0.));
#389=CARTESIAN_POINT('',(160.,2.57735026918961,0.));
#390=CARTESIAN_POINT('',(160.,-2.57735026918965,-3.15634375744465E-16));
#391=CARTESIAN_POINT('Origin',(160.,-1.60982338570648E-14,0.));
#392=CARTESIAN_POINT('Origin',(160.,-1.60982338570648E-14,0.));
#393=CARTESIAN_POINT('Origin',(159.5,-1.61121116448726E-14,0.));
#394=CARTESIAN_POINT('',(159.,-2.00000000000001,-2.44929359829469E-16));
#395=CARTESIAN_POINT('',(159.5,-2.28867513459482,-2.80281867786967E-16));
#396=CARTESIAN_POINT('',(159.,1.99999999999997,0.));
#397=CARTESIAN_POINT('Origin',(159.,-1.61259894326804E-14,0.));
#398=CARTESIAN_POINT('Origin',(159.,-1.61259894326804E-14,0.));
#399=CARTESIAN_POINT('Origin',(154.644337567298,-1.62468833506874E-14,0.));
#400=CARTESIAN_POINT('',(150.288675134595,-2.,-2.44929359829469E-16));
#401=CARTESIAN_POINT('',(154.644337567298,-2.,-2.44929359829469E-16));
#402=CARTESIAN_POINT('',(150.288675134595,1.99999999999997,0.));
#403=CARTESIAN_POINT('Origin',(150.288675134595,-1.63677772686945E-14,0.));
#404=CARTESIAN_POINT('Origin',(150.288675134595,-1.63677772686945E-14,0.));
#405=CARTESIAN_POINT('Origin',(150.144337567297,-1.63717834409578E-14,0.));
#406=CARTESIAN_POINT('',(150.,-2.50000000000002,-3.06161699786838E-16));
#407=CARTESIAN_POINT('',(150.144337567297,-2.25000000000001,-2.75545529808153E-16));
#408=CARTESIAN_POINT('',(150.,2.49999999999998,0.));
#409=CARTESIAN_POINT('Origin',(150.,-1.63757896132211E-14,0.));
#410=CARTESIAN_POINT('Origin',(150.,-1.63757896132211E-14,0.));
#411=CARTESIAN_POINT('Origin',(75.25,-1.84505188904893E-14,0.));
#412=CARTESIAN_POINT('',(0.499999999999998,-2.5,-3.06161699786836E-16));
#413=CARTESIAN_POINT('',(75.25,-2.5,-3.06161699786836E-16));
#414=CARTESIAN_POINT('',(0.5,2.49999999999994,0.));
#415=CARTESIAN_POINT('Origin',(0.5,-2.05252481677576E-14,0.));
#416=CARTESIAN_POINT('Origin',(0.5,-2.05252481677576E-14,0.));
#417=CARTESIAN_POINT('Origin',(0.25,-2.05321870616615E-14,0.));
#418=CARTESIAN_POINT('',(6.93889390390723E-17,-2.78867513459479,-3.4151420774433E-16));
#419=CARTESIAN_POINT('',(0.25,-2.64433756729738,-3.23837953765582E-16));
#420=CARTESIAN_POINT('',(-6.93889390390723E-17,2.78867513459475,0.));
#421=CARTESIAN_POINT('Origin',(8.012344526597E-18,-2.05391259555654E-14,
0.));
#422=CARTESIAN_POINT('Origin',(8.012344526597E-18,-2.05391259555654E-14,
0.));
#423=CARTESIAN_POINT('Origin',(-2.16075738043763E-17,4.99999999999997,0.));
#424=UNCERTAINTY_MEASURE_WITH_UNIT(LENGTH_MEASURE(0.01),#428,
'DISTANCE_ACCURACY_VALUE',
'Maximum model space distance between geometric entities at asserted c
onnectivities');
#425=UNCERTAINTY_MEASURE_WITH_UNIT(LENGTH_MEASURE(0.01),#428,
'DISTANCE_ACCURACY_VALUE',
'Maximum model space distance between geometric entities at asserted c
onnectivities');
#426=(
GEOMETRIC_REPRESENTATION_CONTEXT(3)
GLOBAL_UNCERTAINTY_ASSIGNED_CONTEXT((#424))
GLOBAL_UNIT_ASSIGNED_CONTEXT((#428,#430,#431))
REPRESENTATION_CONTEXT('','3D')
);
#427=(
GEOMETRIC_REPRESENTATION_CONTEXT(3)
GLOBAL_UNCERTAINTY_ASSIGNED_CONTEXT((#425))
GLOBAL_UNIT_ASSIGNED_CONTEXT((#428,#430,#431))
REPRESENTATION_CONTEXT('','3D')
);
#428=(
LENGTH_UNIT()
NAMED_UNIT(*)
SI_UNIT(.MILLI.,.METRE.)
);
#429=(
LENGTH_UNIT()
NAMED_UNIT(*)
SI_UNIT(.CENTI.,.METRE.)
);
#430=(
NAMED_UNIT(*)
PLANE_ANGLE_UNIT()
SI_UNIT($,.RADIAN.)
);
#431=(
NAMED_UNIT(*)
SI_UNIT($,.STERADIAN.)
SOLID_ANGLE_UNIT()
);
#432=SHAPE_DEFINITION_REPRESENTATION(#433,#434);
#433=PRODUCT_DEFINITION_SHAPE('',$,#436);
#434=SHAPE_REPRESENTATION('',(#241),#426);
#435=PRODUCT_DEFINITION_CONTEXT('part definition',#440,'design');
#436=PRODUCT_DEFINITION('S12-SD04-160','S12-SD04-160',#437,#435);
#437=PRODUCT_DEFINITION_FORMATION('',$,#442);
#438=PRODUCT_RELATED_PRODUCT_CATEGORY('S12-SD04-160','S12-SD04-160',(#442));
#439=APPLICATION_PROTOCOL_DEFINITION('international standard',
'automotive_design',2009,#440);
#440=APPLICATION_CONTEXT(
'Core Data for Automotive Mechanical Design Process');
#441=PRODUCT_CONTEXT('part definition',#440,'mechanical');
#442=PRODUCT('S12-SD04-160','S12-SD04-160',$,(#441));
#443=PRESENTATION_STYLE_ASSIGNMENT((#444));
#444=SURFACE_STYLE_USAGE(.BOTH.,#447);
#445=SURFACE_STYLE_RENDERING_WITH_PROPERTIES($,#451,(#446));
#446=SURFACE_STYLE_TRANSPARENT(0.);
#447=SURFACE_SIDE_STYLE('',(#448,#445));
#448=SURFACE_STYLE_FILL_AREA(#449);
#449=FILL_AREA_STYLE('',(#450));
#450=FILL_AREA_STYLE_COLOUR('',#451);
#451=COLOUR_RGB('',0.749019607843137,0.749019607843137,0.749019607843137);
ENDSEC;
END-ISO-10303-21;
