ISO-10303-21;
HEADER;
/* Generated by software containing ST-Developer
 * from STEP Tools, Inc. (www.steptools.com) 
 */

FILE_DESCRIPTION(
/* description */ (''),
/* implementation_level */ '2;1');

FILE_NAME(
/* name */ 'C:\\Users\\ldfli\\OneDrive\\Documents\\Models\\S12-SD03-16
0.stp',
/* time_stamp */ '2019-07-09T10:30:35-05:00',
/* author */ ('ldfli'),
/* organization */ (''),
/* preprocessor_version */ 'ST-DEVELOPER v18',
/* originating_system */ 'Autodesk Inventor LT',
/* authorisation */ '');

FILE_SCHEMA (('AUTOMOTIVE_DESIGN { 1 0 10303 214 3 1 1 }'));
ENDSEC;

DATA;
#10=MECHANICAL_DESIGN_GEOMETRIC_PRESENTATION_REPRESENTATION('',(#13),#427);
#11=SHAPE_REPRESENTATION_RELATIONSHIP('SRR','None',#434,#12);
#12=ADVANCED_BREP_SHAPE_REPRESENTATION('',(#14),#426);
#13=STYLED_ITEM('',(#443),#14);
#14=MANIFOLD_SOLID_BREP('Solid1',#222);
#15=TOROIDAL_SURFACE('',#272,3.0756095083418,0.999999999999992);
#16=FACE_BOUND('',#40,.T.);
#17=FACE_BOUND('',#46,.T.);
#18=PLANE('',#259);
#19=PLANE('',#276);
#20=CYLINDRICAL_SURFACE('',#247,1.49999999999999);
#21=CYLINDRICAL_SURFACE('',#253,2.49999999999998);
#22=CYLINDRICAL_SURFACE('',#265,5.99999999999999);
#23=FACE_OUTER_BOUND('',#34,.T.);
#24=FACE_OUTER_BOUND('',#35,.T.);
#25=FACE_OUTER_BOUND('',#36,.T.);
#26=FACE_OUTER_BOUND('',#37,.T.);
#27=FACE_OUTER_BOUND('',#38,.T.);
#28=FACE_OUTER_BOUND('',#39,.T.);
#29=FACE_OUTER_BOUND('',#41,.T.);
#30=FACE_OUTER_BOUND('',#42,.T.);
#31=FACE_OUTER_BOUND('',#43,.T.);
#32=FACE_OUTER_BOUND('',#44,.T.);
#33=FACE_OUTER_BOUND('',#45,.T.);
#34=EDGE_LOOP('',(#142,#143,#144,#145,#146,#147));
#35=EDGE_LOOP('',(#148,#149,#150,#151,#152,#153));
#36=EDGE_LOOP('',(#154,#155,#156,#157,#158,#159));
#37=EDGE_LOOP('',(#160,#161,#162,#163,#164,#165));
#38=EDGE_LOOP('',(#166,#167,#168,#169,#170,#171));
#39=EDGE_LOOP('',(#172,#173));
#40=EDGE_LOOP('',(#174,#175));
#41=EDGE_LOOP('',(#176,#177,#178,#179,#180,#181));
#42=EDGE_LOOP('',(#182,#183,#184,#185,#186,#187));
#43=EDGE_LOOP('',(#188,#189,#190,#191,#192,#193,#194));
#44=EDGE_LOOP('',(#195,#196,#197,#198,#199,#200,#201));
#45=EDGE_LOOP('',(#202,#203));
#46=EDGE_LOOP('',(#204,#205));
#47=LINE('',#363,#55);
#48=LINE('',#370,#56);
#49=LINE('',#376,#57);
#50=LINE('',#382,#58);
#51=LINE('',#388,#59);
#52=LINE('',#402,#60);
#53=LINE('',#408,#61);
#54=LINE('',#415,#62);
#55=VECTOR('',#283,1.78867513459474);
#56=VECTOR('',#292,1.49999999999999);
#57=VECTOR('',#299,1.99999999999999);
#58=VECTOR('',#306,2.49999999999998);
#59=VECTOR('',#313,2.64433756729736);
#60=VECTOR('',#330,5.49999999999999);
#61=VECTOR('',#337,5.99999999999999);
#62=VECTOR('',#344,5.03626342103746);
#63=CIRCLE('',#243,2.0773502691895);
#64=CIRCLE('',#244,1.49999999999999);
#65=CIRCLE('',#245,1.49999999999999);
#66=CIRCLE('',#246,2.0773502691895);
#67=CIRCLE('',#248,1.49999999999998);
#68=CIRCLE('',#249,1.49999999999998);
#69=CIRCLE('',#251,2.5);
#70=CIRCLE('',#252,2.5);
#71=CIRCLE('',#254,2.49999999999996);
#72=CIRCLE('',#255,2.49999999999996);
#73=CIRCLE('',#257,2.78867513459477);
#74=CIRCLE('',#258,2.78867513459477);
#75=CIRCLE('',#260,4.99999999999999);
#76=CIRCLE('',#261,4.99999999999999);
#77=CIRCLE('',#263,5.99999999999999);
#78=CIRCLE('',#264,5.99999999999999);
#79=CIRCLE('',#266,5.99999999999999);
#80=CIRCLE('',#267,5.99999999999999);
#81=CIRCLE('',#269,4.07252684207492);
#82=CIRCLE('',#270,4.07252684207492);
#83=CIRCLE('',#271,4.07252684207492);
#84=CIRCLE('',#273,3.07560950834179);
#85=CIRCLE('',#274,3.07560950834179);
#86=CIRCLE('',#275,0.999999999999992);
#87=VERTEX_POINT('',#359);
#88=VERTEX_POINT('',#360);
#89=VERTEX_POINT('',#362);
#90=VERTEX_POINT('',#364);
#91=VERTEX_POINT('',#369);
#92=VERTEX_POINT('',#371);
#93=VERTEX_POINT('',#375);
#94=VERTEX_POINT('',#377);
#95=VERTEX_POINT('',#381);
#96=VERTEX_POINT('',#383);
#97=VERTEX_POINT('',#387);
#98=VERTEX_POINT('',#389);
#99=VERTEX_POINT('',#393);
#100=VERTEX_POINT('',#394);
#101=VERTEX_POINT('',#398);
#102=VERTEX_POINT('',#399);
#103=VERTEX_POINT('',#404);
#104=VERTEX_POINT('',#405);
#105=VERTEX_POINT('',#410);
#106=VERTEX_POINT('',#411);
#107=VERTEX_POINT('',#413);
#108=VERTEX_POINT('',#418);
#109=VERTEX_POINT('',#419);
#110=EDGE_CURVE('',#87,#88,#63,.T.);
#111=EDGE_CURVE('',#88,#89,#47,.T.);
#112=EDGE_CURVE('',#90,#89,#64,.T.);
#113=EDGE_CURVE('',#89,#90,#65,.T.);
#114=EDGE_CURVE('',#88,#87,#66,.T.);
#115=EDGE_CURVE('',#89,#91,#48,.T.);
#116=EDGE_CURVE('',#92,#91,#67,.T.);
#117=EDGE_CURVE('',#91,#92,#68,.T.);
#118=EDGE_CURVE('',#91,#93,#49,.T.);
#119=EDGE_CURVE('',#94,#93,#69,.T.);
#120=EDGE_CURVE('',#93,#94,#70,.T.);
#121=EDGE_CURVE('',#93,#95,#50,.T.);
#122=EDGE_CURVE('',#96,#95,#71,.T.);
#123=EDGE_CURVE('',#95,#96,#72,.T.);
#124=EDGE_CURVE('',#95,#97,#51,.T.);
#125=EDGE_CURVE('',#98,#97,#73,.T.);
#126=EDGE_CURVE('',#97,#98,#74,.T.);
#127=EDGE_CURVE('',#99,#100,#75,.T.);
#128=EDGE_CURVE('',#100,#99,#76,.T.);
#129=EDGE_CURVE('',#101,#102,#77,.T.);
#130=EDGE_CURVE('',#102,#101,#78,.T.);
#131=EDGE_CURVE('',#102,#100,#52,.T.);
#132=EDGE_CURVE('',#103,#104,#79,.T.);
#133=EDGE_CURVE('',#104,#103,#80,.T.);
#134=EDGE_CURVE('',#104,#102,#53,.T.);
#135=EDGE_CURVE('',#105,#106,#81,.T.);
#136=EDGE_CURVE('',#107,#105,#82,.T.);
#137=EDGE_CURVE('',#107,#104,#54,.T.);
#138=EDGE_CURVE('',#106,#107,#83,.T.);
#139=EDGE_CURVE('',#108,#109,#84,.T.);
#140=EDGE_CURVE('',#109,#108,#85,.T.);
#141=EDGE_CURVE('',#109,#106,#86,.T.);
#142=ORIENTED_EDGE('',*,*,#110,.T.);
#143=ORIENTED_EDGE('',*,*,#111,.T.);
#144=ORIENTED_EDGE('',*,*,#112,.F.);
#145=ORIENTED_EDGE('',*,*,#113,.F.);
#146=ORIENTED_EDGE('',*,*,#111,.F.);
#147=ORIENTED_EDGE('',*,*,#114,.T.);
#148=ORIENTED_EDGE('',*,*,#112,.T.);
#149=ORIENTED_EDGE('',*,*,#115,.T.);
#150=ORIENTED_EDGE('',*,*,#116,.F.);
#151=ORIENTED_EDGE('',*,*,#117,.F.);
#152=ORIENTED_EDGE('',*,*,#115,.F.);
#153=ORIENTED_EDGE('',*,*,#113,.T.);
#154=ORIENTED_EDGE('',*,*,#116,.T.);
#155=ORIENTED_EDGE('',*,*,#118,.T.);
#156=ORIENTED_EDGE('',*,*,#119,.F.);
#157=ORIENTED_EDGE('',*,*,#120,.F.);
#158=ORIENTED_EDGE('',*,*,#118,.F.);
#159=ORIENTED_EDGE('',*,*,#117,.T.);
#160=ORIENTED_EDGE('',*,*,#119,.T.);
#161=ORIENTED_EDGE('',*,*,#121,.T.);
#162=ORIENTED_EDGE('',*,*,#122,.F.);
#163=ORIENTED_EDGE('',*,*,#123,.F.);
#164=ORIENTED_EDGE('',*,*,#121,.F.);
#165=ORIENTED_EDGE('',*,*,#120,.T.);
#166=ORIENTED_EDGE('',*,*,#122,.T.);
#167=ORIENTED_EDGE('',*,*,#124,.T.);
#168=ORIENTED_EDGE('',*,*,#125,.F.);
#169=ORIENTED_EDGE('',*,*,#126,.F.);
#170=ORIENTED_EDGE('',*,*,#124,.F.);
#171=ORIENTED_EDGE('',*,*,#123,.T.);
#172=ORIENTED_EDGE('',*,*,#127,.F.);
#173=ORIENTED_EDGE('',*,*,#128,.F.);
#174=ORIENTED_EDGE('',*,*,#125,.T.);
#175=ORIENTED_EDGE('',*,*,#126,.T.);
#176=ORIENTED_EDGE('',*,*,#129,.F.);
#177=ORIENTED_EDGE('',*,*,#130,.F.);
#178=ORIENTED_EDGE('',*,*,#131,.T.);
#179=ORIENTED_EDGE('',*,*,#128,.T.);
#180=ORIENTED_EDGE('',*,*,#127,.T.);
#181=ORIENTED_EDGE('',*,*,#131,.F.);
#182=ORIENTED_EDGE('',*,*,#132,.F.);
#183=ORIENTED_EDGE('',*,*,#133,.F.);
#184=ORIENTED_EDGE('',*,*,#134,.T.);
#185=ORIENTED_EDGE('',*,*,#130,.T.);
#186=ORIENTED_EDGE('',*,*,#129,.T.);
#187=ORIENTED_EDGE('',*,*,#134,.F.);
#188=ORIENTED_EDGE('',*,*,#135,.F.);
#189=ORIENTED_EDGE('',*,*,#136,.F.);
#190=ORIENTED_EDGE('',*,*,#137,.T.);
#191=ORIENTED_EDGE('',*,*,#133,.T.);
#192=ORIENTED_EDGE('',*,*,#132,.T.);
#193=ORIENTED_EDGE('',*,*,#137,.F.);
#194=ORIENTED_EDGE('',*,*,#138,.F.);
#195=ORIENTED_EDGE('',*,*,#139,.F.);
#196=ORIENTED_EDGE('',*,*,#140,.F.);
#197=ORIENTED_EDGE('',*,*,#141,.T.);
#198=ORIENTED_EDGE('',*,*,#138,.T.);
#199=ORIENTED_EDGE('',*,*,#136,.T.);
#200=ORIENTED_EDGE('',*,*,#135,.T.);
#201=ORIENTED_EDGE('',*,*,#141,.F.);
#202=ORIENTED_EDGE('',*,*,#139,.T.);
#203=ORIENTED_EDGE('',*,*,#140,.T.);
#204=ORIENTED_EDGE('',*,*,#110,.F.);
#205=ORIENTED_EDGE('',*,*,#114,.F.);
#206=CONICAL_SURFACE('',#242,1.78867513459474,0.523598775598218);
#207=CONICAL_SURFACE('',#250,1.99999999999999,1.04719755119646);
#208=CONICAL_SURFACE('',#256,2.64433756729736,0.523598775598299);
#209=CONICAL_SURFACE('',#262,5.49999999999999,0.785398163397448);
#210=CONICAL_SURFACE('',#268,5.03626342103746,0.0785398163397447);
#211=ADVANCED_FACE('',(#23),#206,.F.);
#212=ADVANCED_FACE('',(#24),#20,.F.);
#213=ADVANCED_FACE('',(#25),#207,.F.);
#214=ADVANCED_FACE('',(#26),#21,.F.);
#215=ADVANCED_FACE('',(#27),#208,.F.);
#216=ADVANCED_FACE('',(#28,#16),#18,.T.);
#217=ADVANCED_FACE('',(#29),#209,.T.);
#218=ADVANCED_FACE('',(#30),#22,.T.);
#219=ADVANCED_FACE('',(#31),#210,.T.);
#220=ADVANCED_FACE('',(#32),#15,.T.);
#221=ADVANCED_FACE('',(#33,#17),#19,.T.);
#222=CLOSED_SHELL('',(#211,#212,#213,#214,#215,#216,#217,#218,#219,#220,
#221));
#223=DERIVED_UNIT_ELEMENT(#225,1.);
#224=DERIVED_UNIT_ELEMENT(#429,3.);
#225=(
MASS_UNIT()
NAMED_UNIT(*)
SI_UNIT($,.GRAM.)
);
#226=DERIVED_UNIT((#223,#224));
#227=MEASURE_REPRESENTATION_ITEM('density measure',
POSITIVE_RATIO_MEASURE(1.),#226);
#228=PROPERTY_DEFINITION_REPRESENTATION(#233,#230);
#229=PROPERTY_DEFINITION_REPRESENTATION(#234,#231);
#230=REPRESENTATION('material name',(#232),#426);
#231=REPRESENTATION('density',(#227),#426);
#232=DESCRIPTIVE_REPRESENTATION_ITEM('Generic','Generic');
#233=PROPERTY_DEFINITION('material property','material name',#436);
#234=PROPERTY_DEFINITION('material property','density of part',#436);
#235=DATE_TIME_ROLE('creation_date');
#236=APPLIED_DATE_AND_TIME_ASSIGNMENT(#237,#235,(#436));
#237=DATE_AND_TIME(#238,#239);
#238=CALENDAR_DATE(2019,9,7);
#239=LOCAL_TIME(15,18,1.,#240);
#240=COORDINATED_UNIVERSAL_TIME_OFFSET(0,0,.BEHIND.);
#241=AXIS2_PLACEMENT_3D('placement',#357,#277,#278);
#242=AXIS2_PLACEMENT_3D('',#358,#279,#280);
#243=AXIS2_PLACEMENT_3D('',#361,#281,#282);
#244=AXIS2_PLACEMENT_3D('',#365,#284,#285);
#245=AXIS2_PLACEMENT_3D('',#366,#286,#287);
#246=AXIS2_PLACEMENT_3D('',#367,#288,#289);
#247=AXIS2_PLACEMENT_3D('',#368,#290,#291);
#248=AXIS2_PLACEMENT_3D('',#372,#293,#294);
#249=AXIS2_PLACEMENT_3D('',#373,#295,#296);
#250=AXIS2_PLACEMENT_3D('',#374,#297,#298);
#251=AXIS2_PLACEMENT_3D('',#378,#300,#301);
#252=AXIS2_PLACEMENT_3D('',#379,#302,#303);
#253=AXIS2_PLACEMENT_3D('',#380,#304,#305);
#254=AXIS2_PLACEMENT_3D('',#384,#307,#308);
#255=AXIS2_PLACEMENT_3D('',#385,#309,#310);
#256=AXIS2_PLACEMENT_3D('',#386,#311,#312);
#257=AXIS2_PLACEMENT_3D('',#390,#314,#315);
#258=AXIS2_PLACEMENT_3D('',#391,#316,#317);
#259=AXIS2_PLACEMENT_3D('',#392,#318,#319);
#260=AXIS2_PLACEMENT_3D('',#395,#320,#321);
#261=AXIS2_PLACEMENT_3D('',#396,#322,#323);
#262=AXIS2_PLACEMENT_3D('',#397,#324,#325);
#263=AXIS2_PLACEMENT_3D('',#400,#326,#327);
#264=AXIS2_PLACEMENT_3D('',#401,#328,#329);
#265=AXIS2_PLACEMENT_3D('',#403,#331,#332);
#266=AXIS2_PLACEMENT_3D('',#406,#333,#334);
#267=AXIS2_PLACEMENT_3D('',#407,#335,#336);
#268=AXIS2_PLACEMENT_3D('',#409,#338,#339);
#269=AXIS2_PLACEMENT_3D('',#412,#340,#341);
#270=AXIS2_PLACEMENT_3D('',#414,#342,#343);
#271=AXIS2_PLACEMENT_3D('',#416,#345,#346);
#272=AXIS2_PLACEMENT_3D('',#417,#347,#348);
#273=AXIS2_PLACEMENT_3D('',#420,#349,#350);
#274=AXIS2_PLACEMENT_3D('',#421,#351,#352);
#275=AXIS2_PLACEMENT_3D('',#422,#353,#354);
#276=AXIS2_PLACEMENT_3D('',#423,#355,#356);
#277=DIRECTION('axis',(0.,0.,1.));
#278=DIRECTION('refdir',(1.,0.,0.));
#279=DIRECTION('center_axis',(1.,2.77555756156289E-17,0.));
#280=DIRECTION('ref_axis',(-2.77555756156289E-17,1.,0.));
#281=DIRECTION('center_axis',(1.,2.77555756156289E-17,0.));
#282=DIRECTION('ref_axis',(0.,0.,-1.));
#283=DIRECTION('',(-0.866025403784479,0.49999999999993,6.12323399573591E-17));
#284=DIRECTION('center_axis',(1.,2.77555756156289E-17,0.));
#285=DIRECTION('ref_axis',(0.,0.,-1.));
#286=DIRECTION('center_axis',(1.,2.77555756156289E-17,0.));
#287=DIRECTION('ref_axis',(0.,0.,-1.));
#288=DIRECTION('center_axis',(1.,2.77555756156289E-17,0.));
#289=DIRECTION('ref_axis',(0.,0.,-1.));
#290=DIRECTION('center_axis',(1.,2.77555756156289E-17,0.));
#291=DIRECTION('ref_axis',(-2.77555756156289E-17,1.,0.));
#292=DIRECTION('',(-1.,-2.77555756156289E-17,0.));
#293=DIRECTION('center_axis',(1.,2.77555756156289E-17,0.));
#294=DIRECTION('ref_axis',(0.,0.,-1.));
#295=DIRECTION('center_axis',(1.,2.77555756156289E-17,0.));
#296=DIRECTION('ref_axis',(0.,0.,-1.));
#297=DIRECTION('center_axis',(-1.,-2.77555756156289E-17,0.));
#298=DIRECTION('ref_axis',(-2.77555756156289E-17,1.,0.));
#299=DIRECTION('',(-0.50000000000012,-0.86602540378437,-1.06057523872482E-16));
#300=DIRECTION('center_axis',(1.,2.77555756156289E-17,0.));
#301=DIRECTION('ref_axis',(0.,0.,-1.));
#302=DIRECTION('center_axis',(1.,2.77555756156289E-17,0.));
#303=DIRECTION('ref_axis',(0.,0.,-1.));
#304=DIRECTION('center_axis',(1.,2.77555756156289E-17,0.));
#305=DIRECTION('ref_axis',(-2.77555756156289E-17,1.,0.));
#306=DIRECTION('',(-1.,-2.77555756156289E-17,0.));
#307=DIRECTION('center_axis',(1.,2.77555756156289E-17,0.));
#308=DIRECTION('ref_axis',(0.,0.,-1.));
#309=DIRECTION('center_axis',(1.,2.77555756156289E-17,0.));
#310=DIRECTION('ref_axis',(0.,0.,-1.));
#311=DIRECTION('center_axis',(-1.,-2.77555756156289E-17,0.));
#312=DIRECTION('ref_axis',(-2.77555756156289E-17,1.,0.));
#313=DIRECTION('',(-0.866025403784438,-0.5,-6.12323399573677E-17));
#314=DIRECTION('center_axis',(1.,2.77555756156289E-17,0.));
#315=DIRECTION('ref_axis',(0.,0.,-1.));
#316=DIRECTION('center_axis',(1.,2.77555756156289E-17,0.));
#317=DIRECTION('ref_axis',(0.,0.,-1.));
#318=DIRECTION('center_axis',(-1.,-2.77555756156289E-17,0.));
#319=DIRECTION('ref_axis',(0.,0.,1.));
#320=DIRECTION('center_axis',(1.,2.77555756156289E-17,0.));
#321=DIRECTION('ref_axis',(0.,0.,-1.));
#322=DIRECTION('center_axis',(1.,2.77555756156289E-17,0.));
#323=DIRECTION('ref_axis',(0.,0.,-1.));
#324=DIRECTION('center_axis',(1.,2.77555756156289E-17,0.));
#325=DIRECTION('ref_axis',(-2.77555756156289E-17,1.,0.));
#326=DIRECTION('center_axis',(1.,2.77555756156289E-17,0.));
#327=DIRECTION('ref_axis',(0.,0.,-1.));
#328=DIRECTION('center_axis',(1.,2.77555756156289E-17,0.));
#329=DIRECTION('ref_axis',(0.,0.,-1.));
#330=DIRECTION('',(-0.707106781186548,0.707106781186547,8.65956056235493E-17));
#331=DIRECTION('center_axis',(1.,2.77555756156289E-17,0.));
#332=DIRECTION('ref_axis',(-2.77555756156289E-17,1.,0.));
#333=DIRECTION('center_axis',(1.,2.77555756156289E-17,0.));
#334=DIRECTION('ref_axis',(0.,0.,-1.));
#335=DIRECTION('center_axis',(1.,2.77555756156289E-17,0.));
#336=DIRECTION('ref_axis',(0.,0.,-1.));
#337=DIRECTION('',(-1.,-2.77555756156289E-17,0.));
#338=DIRECTION('center_axis',(-1.,-2.77555756156289E-17,0.));
#339=DIRECTION('ref_axis',(-2.77555756156289E-17,1.,0.));
#340=DIRECTION('center_axis',(1.,2.77555756156289E-17,0.));
#341=DIRECTION('ref_axis',(0.,0.,-1.));
#342=DIRECTION('center_axis',(1.,2.77555756156289E-17,0.));
#343=DIRECTION('ref_axis',(0.,0.,-1.));
#344=DIRECTION('',(-0.996917333733128,-0.0784590957278449,-9.6084680447101E-18));
#345=DIRECTION('center_axis',(1.,2.77555756156289E-17,0.));
#346=DIRECTION('ref_axis',(0.,0.,-1.));
#347=DIRECTION('center_axis',(1.,2.77555756156289E-17,0.));
#348=DIRECTION('ref_axis',(0.,0.,-1.));
#349=DIRECTION('center_axis',(1.,2.77555756156289E-17,0.));
#350=DIRECTION('ref_axis',(0.,0.,-1.));
#351=DIRECTION('center_axis',(1.,2.77555756156289E-17,0.));
#352=DIRECTION('ref_axis',(0.,0.,-1.));
#353=DIRECTION('center_axis',(2.77555756156289E-17,-1.,-1.22464679914735E-16));
#354=DIRECTION('ref_axis',(0.,-1.22464679914735E-16,1.));
#355=DIRECTION('center_axis',(1.,2.77555756156289E-17,0.));
#356=DIRECTION('ref_axis',(0.,0.,-1.));
#357=CARTESIAN_POINT('',(0.,0.,0.));
#358=CARTESIAN_POINT('Origin',(159.5,-1.61121116448726E-14,0.));
#359=CARTESIAN_POINT('',(160.,2.07735026918949,0.));
#360=CARTESIAN_POINT('',(160.,-2.07735026918952,-2.54402035787082E-16));
#361=CARTESIAN_POINT('Origin',(160.,-1.60982338570648E-14,0.));
#362=CARTESIAN_POINT('',(159.,-1.50000000000001,-1.83697019872102E-16));
#363=CARTESIAN_POINT('',(159.5,-1.78867513459476,-2.19049527829592E-16));
#364=CARTESIAN_POINT('',(159.,1.49999999999997,0.));
#365=CARTESIAN_POINT('Origin',(159.,-1.61259894326804E-14,0.));
#366=CARTESIAN_POINT('Origin',(159.,-1.61259894326804E-14,0.));
#367=CARTESIAN_POINT('Origin',(160.,-1.60982338570648E-14,0.));
#368=CARTESIAN_POINT('Origin',(154.788675134595,-1.62428771784241E-14,0.));
#369=CARTESIAN_POINT('',(150.57735026919,-1.5,-1.83697019872101E-16));
#370=CARTESIAN_POINT('',(154.788675134595,-1.5,-1.83697019872101E-16));
#371=CARTESIAN_POINT('',(150.57735026919,1.49999999999997,0.));
#372=CARTESIAN_POINT('Origin',(150.57735026919,-1.63597649241679E-14,0.));
#373=CARTESIAN_POINT('Origin',(150.57735026919,-1.63597649241679E-14,0.));
#374=CARTESIAN_POINT('Origin',(150.288675134595,-1.63677772686945E-14,0.));
#375=CARTESIAN_POINT('',(150.,-2.50000000000002,-3.06161699786839E-16));
#376=CARTESIAN_POINT('',(150.288675134595,-2.00000000000001,-2.4492935982947E-16));
#377=CARTESIAN_POINT('',(150.,2.49999999999998,0.));
#378=CARTESIAN_POINT('Origin',(150.,-1.63757896132211E-14,0.));
#379=CARTESIAN_POINT('Origin',(150.,-1.63757896132211E-14,0.));
#380=CARTESIAN_POINT('Origin',(75.25,-1.84505188904893E-14,0.));
#381=CARTESIAN_POINT('',(0.500000000000007,-2.5,-3.06161699786836E-16));
#382=CARTESIAN_POINT('',(75.25,-2.5,-3.06161699786836E-16));
#383=CARTESIAN_POINT('',(0.5,2.49999999999994,0.));
#384=CARTESIAN_POINT('Origin',(0.500000000000007,-2.05252481677576E-14,
0.));
#385=CARTESIAN_POINT('Origin',(0.500000000000007,-2.05252481677576E-14,
0.));
#386=CARTESIAN_POINT('Origin',(0.250000000000004,-2.05321870616615E-14,
0.));
#387=CARTESIAN_POINT('',(1.11022302462516E-15,-2.78867513459479,-3.4151420774433E-16));
#388=CARTESIAN_POINT('',(0.250000000000004,-2.64433756729738,-3.23837953765582E-16));
#389=CARTESIAN_POINT('',(-6.93889390390723E-17,2.78867513459475,0.));
#390=CARTESIAN_POINT('Origin',(0.,-2.05391259555654E-14,0.));
#391=CARTESIAN_POINT('Origin',(0.,-2.05391259555654E-14,0.));
#392=CARTESIAN_POINT('Origin',(-2.16075738043763E-17,4.99999999999997,0.));
#393=CARTESIAN_POINT('',(-2.16075738043763E-17,4.99999999999997,0.));
#394=CARTESIAN_POINT('',(3.33066907387547E-15,-5.,-6.12323399573675E-16));
#395=CARTESIAN_POINT('Origin',(0.,-2.05391259555654E-14,0.));
#396=CARTESIAN_POINT('Origin',(0.,-2.05391259555654E-14,0.));
#397=CARTESIAN_POINT('Origin',(0.500000000000007,-2.05252481677576E-14,
0.));
#398=CARTESIAN_POINT('',(1.,5.99999999999997,0.));
#399=CARTESIAN_POINT('',(1.,-6.,-7.3478807948841E-16));
#400=CARTESIAN_POINT('Origin',(0.999999999999996,-2.05113703799498E-14,
0.));
#401=CARTESIAN_POINT('Origin',(0.999999999999996,-2.05113703799498E-14,
0.));
#402=CARTESIAN_POINT('',(0.500000000000007,-5.50000000000001,-6.73555739531043E-16));
#403=CARTESIAN_POINT('Origin',(67.7937952638253,-1.86574701448498E-14,0.));
#404=CARTESIAN_POINT('',(134.587590527651,5.99999999999997,0.));
#405=CARTESIAN_POINT('',(134.587590527651,-6.00000000000001,-7.3478807948841E-16));
#406=CARTESIAN_POINT('Origin',(134.587590527651,-1.68035699097499E-14,0.));
#407=CARTESIAN_POINT('Origin',(134.587590527651,-1.68035699097499E-14,0.));
#408=CARTESIAN_POINT('',(67.7937952638253,-6.00000000000001,-7.3478807948841E-16));
#409=CARTESIAN_POINT('Origin',(146.833024811689,-1.6463690832533E-14,0.));
#410=CARTESIAN_POINT('',(159.078459095728,4.0725268420749,0.));
#411=CARTESIAN_POINT('',(159.078459095728,-1.66225524514751E-14,4.07252684207492));
#412=CARTESIAN_POINT('Origin',(159.078459095728,-1.61238117553162E-14,0.));
#413=CARTESIAN_POINT('',(159.078459095728,-4.07252684207494,-4.98740696158873E-16));
#414=CARTESIAN_POINT('Origin',(159.078459095728,-1.61238117553162E-14,0.));
#415=CARTESIAN_POINT('',(146.833024811689,-5.03626342103747,-6.16764387823642E-16));
#416=CARTESIAN_POINT('Origin',(159.078459095728,-1.61238117553162E-14,0.));
#417=CARTESIAN_POINT('Origin',(159.,-1.61259894326804E-14,0.));
#418=CARTESIAN_POINT('',(160.,3.07560950834178,0.));
#419=CARTESIAN_POINT('',(160.,-1.64748873910466E-14,3.07560950834179));
#420=CARTESIAN_POINT('Origin',(160.,-1.60982338570648E-14,0.));
#421=CARTESIAN_POINT('Origin',(160.,-1.60982338570648E-14,0.));
#422=CARTESIAN_POINT('Origin',(159.,-1.65026429666622E-14,3.0756095083418));
#423=CARTESIAN_POINT('Origin',(160.,2.07735026918949,0.));
#424=UNCERTAINTY_MEASURE_WITH_UNIT(LENGTH_MEASURE(0.01),#428,
'DISTANCE_ACCURACY_VALUE',
'Maximum model space distance between geometric entities at asserted c
onnectivities');
#425=UNCERTAINTY_MEASURE_WITH_UNIT(LENGTH_MEASURE(0.01),#428,
'DISTANCE_ACCURACY_VALUE',
'Maximum model space distance between geometric entities at asserted c
onnectivities');
#426=(
GEOMETRIC_REPRESENTATION_CONTEXT(3)
GLOBAL_UNCERTAINTY_ASSIGNED_CONTEXT((#424))
GLOBAL_UNIT_ASSIGNED_CONTEXT((#428,#430,#431))
REPRESENTATION_CONTEXT('','3D')
);
#427=(
GEOMETRIC_REPRESENTATION_CONTEXT(3)
GLOBAL_UNCERTAINTY_ASSIGNED_CONTEXT((#425))
GLOBAL_UNIT_ASSIGNED_CONTEXT((#428,#430,#431))
REPRESENTATION_CONTEXT('','3D')
);
#428=(
LENGTH_UNIT()
NAMED_UNIT(*)
SI_UNIT(.MILLI.,.METRE.)
);
#429=(
LENGTH_UNIT()
NAMED_UNIT(*)
SI_UNIT(.CENTI.,.METRE.)
);
#430=(
NAMED_UNIT(*)
PLANE_ANGLE_UNIT()
SI_UNIT($,.RADIAN.)
);
#431=(
NAMED_UNIT(*)
SI_UNIT($,.STERADIAN.)
SOLID_ANGLE_UNIT()
);
#432=SHAPE_DEFINITION_REPRESENTATION(#433,#434);
#433=PRODUCT_DEFINITION_SHAPE('',$,#436);
#434=SHAPE_REPRESENTATION('',(#241),#426);
#435=PRODUCT_DEFINITION_CONTEXT('part definition',#440,'design');
#436=PRODUCT_DEFINITION('S12-SD03-160','S12-SD03-160',#437,#435);
#437=PRODUCT_DEFINITION_FORMATION('',$,#442);
#438=PRODUCT_RELATED_PRODUCT_CATEGORY('S12-SD03-160','S12-SD03-160',(#442));
#439=APPLICATION_PROTOCOL_DEFINITION('international standard',
'automotive_design',2009,#440);
#440=APPLICATION_CONTEXT(
'Core Data for Automotive Mechanical Design Process');
#441=PRODUCT_CONTEXT('part definition',#440,'mechanical');
#442=PRODUCT('S12-SD03-160','S12-SD03-160',$,(#441));
#443=PRESENTATION_STYLE_ASSIGNMENT((#444));
#444=SURFACE_STYLE_USAGE(.BOTH.,#447);
#445=SURFACE_STYLE_RENDERING_WITH_PROPERTIES($,#451,(#446));
#446=SURFACE_STYLE_TRANSPARENT(0.);
#447=SURFACE_SIDE_STYLE('',(#448,#445));
#448=SURFACE_STYLE_FILL_AREA(#449);
#449=FILL_AREA_STYLE('',(#450));
#450=FILL_AREA_STYLE_COLOUR('',#451);
#451=COLOUR_RGB('',0.749019607843137,0.749019607843137,0.749019607843137);
ENDSEC;
END-ISO-10303-21;
