ISO-10303-21;
HEADER;
/* Generated by software containing ST-Developer
 * from STEP Tools, Inc. (www.steptools.com) 
 */

FILE_DESCRIPTION(
/* description */ (''),
/* implementation_level */ '2;1');

FILE_NAME(
/* name */ 'C:\\Users\\Lee\\OneDrive\\Documents\\Models\\S100-SN050-08
00.stp',
/* time_stamp */ '2018-12-19T15:51:46-06:00',
/* author */ ('Lee'),
/* organization */ (''),
/* preprocessor_version */ 'ST-DEVELOPER v17',
/* originating_system */ 'Autodesk Inventor LT',
/* authorisation */ '');

FILE_SCHEMA (('AUTOMOTIVE_DESIGN { 1 0 10303 214 3 1 1 }'));
ENDSEC;

DATA;
#10=MECHANICAL_DESIGN_GEOMETRIC_PRESENTATION_REPRESENTATION('',(#13),#565);
#11=SHAPE_REPRESENTATION_RELATIONSHIP('SRR','None',#572,#12);
#12=ADVANCED_BREP_SHAPE_REPRESENTATION('',(#14),#564);
#13=STYLED_ITEM('',(#581),#14);
#14=MANIFOLD_SOLID_BREP('Solid1',#291);
#15=FACE_BOUND('',#47,.T.);
#16=FACE_BOUND('',#56,.T.);
#17=PLANE('',#328);
#18=PLANE('',#356);
#19=TOROIDAL_SURFACE('',#324,7.39115561259646,0.50000000000001);
#20=TOROIDAL_SURFACE('',#331,7.04282032302751,0.199999999999989);
#21=TOROIDAL_SURFACE('',#352,7.19282032302755,0.200000000000012);
#22=TOROIDAL_SURFACE('',#359,11.7,1.);
#23=CONICAL_SURFACE('',#317,11.9811462111223,0.104719755119652);
#24=CONICAL_SURFACE('',#320,9.57657172417528,0.0349065850398787);
#25=CONICAL_SURFACE('',#336,6.60980762113533,0.523598775598292);
#26=CONICAL_SURFACE('',#342,6.425,1.02974425867667);
#27=CONICAL_SURFACE('',#348,6.75980762113532,0.523598775598281);
#28=FACE_OUTER_BOUND('',#42,.T.);
#29=FACE_OUTER_BOUND('',#43,.T.);
#30=FACE_OUTER_BOUND('',#44,.T.);
#31=FACE_OUTER_BOUND('',#45,.T.);
#32=FACE_OUTER_BOUND('',#46,.T.);
#33=FACE_OUTER_BOUND('',#48,.T.);
#34=FACE_OUTER_BOUND('',#49,.T.);
#35=FACE_OUTER_BOUND('',#50,.T.);
#36=FACE_OUTER_BOUND('',#51,.T.);
#37=FACE_OUTER_BOUND('',#52,.T.);
#38=FACE_OUTER_BOUND('',#53,.T.);
#39=FACE_OUTER_BOUND('',#54,.T.);
#40=FACE_OUTER_BOUND('',#55,.T.);
#41=FACE_OUTER_BOUND('',#57,.T.);
#42=EDGE_LOOP('',(#186,#187,#188,#189,#190,#191,#192));
#43=EDGE_LOOP('',(#193,#194,#195,#196,#197,#198));
#44=EDGE_LOOP('',(#199,#200,#201,#202,#203,#204,#205));
#45=EDGE_LOOP('',(#206,#207,#208,#209,#210,#211,#212));
#46=EDGE_LOOP('',(#213,#214));
#47=EDGE_LOOP('',(#215,#216));
#48=EDGE_LOOP('',(#217,#218,#219,#220,#221,#222,#223));
#49=EDGE_LOOP('',(#224,#225,#226,#227,#228,#229,#230));
#50=EDGE_LOOP('',(#231,#232,#233,#234,#235,#236));
#51=EDGE_LOOP('',(#237,#238,#239,#240,#241,#242));
#52=EDGE_LOOP('',(#243,#244,#245,#246,#247,#248));
#53=EDGE_LOOP('',(#249,#250,#251,#252,#253,#254,#255));
#54=EDGE_LOOP('',(#256,#257,#258,#259,#260,#261,#262));
#55=EDGE_LOOP('',(#263,#264));
#56=EDGE_LOOP('',(#265,#266));
#57=EDGE_LOOP('',(#267,#268,#269,#270,#271,#272,#273));
#58=LINE('',#478,#66);
#59=LINE('',#489,#67);
#60=LINE('',#496,#68);
#61=LINE('',#519,#69);
#62=LINE('',#525,#70);
#63=LINE('',#531,#71);
#64=LINE('',#537,#72);
#65=LINE('',#543,#73);
#66=VECTOR('',#369,12.7);
#67=VECTOR('',#382,11.9811462111223);
#68=VECTOR('',#389,9.57657172417528);
#69=VECTOR('',#418,6.60980762113533);
#70=VECTOR('',#425,6.34999999999999);
#71=VECTOR('',#432,6.425);
#72=VECTOR('',#439,6.5);
#73=VECTOR('',#446,6.75980762113532);
#74=CIRCLE('',#312,12.7);
#75=CIRCLE('',#313,12.7);
#76=CIRCLE('',#314,12.7);
#77=CIRCLE('',#315,12.7);
#78=CIRCLE('',#316,12.7);
#79=CIRCLE('',#318,11.2622924222445);
#80=CIRCLE('',#319,11.2622924222445);
#81=CIRCLE('',#321,7.89085102610602);
#82=CIRCLE('',#322,7.89085102610602);
#83=CIRCLE('',#323,7.89085102610602);
#84=CIRCLE('',#325,7.39115561259646);
#85=CIRCLE('',#326,7.39115561259646);
#86=CIRCLE('',#327,0.50000000000001);
#87=CIRCLE('',#329,7.04282032302751);
#88=CIRCLE('',#330,7.04282032302751);
#89=CIRCLE('',#332,6.86961524227067);
#90=CIRCLE('',#333,6.86961524227067);
#91=CIRCLE('',#334,6.86961524227067);
#92=CIRCLE('',#335,0.199999999999989);
#93=CIRCLE('',#337,6.34999999999999);
#94=CIRCLE('',#338,6.34999999999999);
#95=CIRCLE('',#340,6.34999999999999);
#96=CIRCLE('',#341,6.34999999999999);
#97=CIRCLE('',#343,6.5);
#98=CIRCLE('',#344,6.5);
#99=CIRCLE('',#346,6.5);
#100=CIRCLE('',#347,6.5);
#101=CIRCLE('',#349,7.01961524227065);
#102=CIRCLE('',#350,7.01961524227065);
#103=CIRCLE('',#351,7.01961524227065);
#104=CIRCLE('',#353,7.19282032302755);
#105=CIRCLE('',#354,7.19282032302755);
#106=CIRCLE('',#355,0.200000000000012);
#107=CIRCLE('',#357,11.7);
#108=CIRCLE('',#358,11.7);
#109=CIRCLE('',#360,1.);
#110=VERTEX_POINT('',#473);
#111=VERTEX_POINT('',#474);
#112=VERTEX_POINT('',#477);
#113=VERTEX_POINT('',#479);
#114=VERTEX_POINT('',#481);
#115=VERTEX_POINT('',#485);
#116=VERTEX_POINT('',#486);
#117=VERTEX_POINT('',#491);
#118=VERTEX_POINT('',#492);
#119=VERTEX_POINT('',#494);
#120=VERTEX_POINT('',#499);
#121=VERTEX_POINT('',#500);
#122=VERTEX_POINT('',#505);
#123=VERTEX_POINT('',#506);
#124=VERTEX_POINT('',#510);
#125=VERTEX_POINT('',#511);
#126=VERTEX_POINT('',#513);
#127=VERTEX_POINT('',#518);
#128=VERTEX_POINT('',#520);
#129=VERTEX_POINT('',#524);
#130=VERTEX_POINT('',#526);
#131=VERTEX_POINT('',#530);
#132=VERTEX_POINT('',#532);
#133=VERTEX_POINT('',#536);
#134=VERTEX_POINT('',#538);
#135=VERTEX_POINT('',#542);
#136=VERTEX_POINT('',#544);
#137=VERTEX_POINT('',#546);
#138=VERTEX_POINT('',#550);
#139=VERTEX_POINT('',#551);
#140=VERTEX_POINT('',#556);
#141=VERTEX_POINT('',#557);
#142=EDGE_CURVE('',#110,#111,#74,.T.);
#143=EDGE_CURVE('',#111,#110,#75,.T.);
#144=EDGE_CURVE('',#111,#112,#58,.T.);
#145=EDGE_CURVE('',#112,#113,#76,.T.);
#146=EDGE_CURVE('',#113,#114,#77,.T.);
#147=EDGE_CURVE('',#114,#112,#78,.T.);
#148=EDGE_CURVE('',#115,#116,#79,.T.);
#149=EDGE_CURVE('',#116,#115,#80,.T.);
#150=EDGE_CURVE('',#116,#111,#59,.T.);
#151=EDGE_CURVE('',#117,#118,#81,.T.);
#152=EDGE_CURVE('',#119,#117,#82,.T.);
#153=EDGE_CURVE('',#119,#116,#60,.T.);
#154=EDGE_CURVE('',#118,#119,#83,.T.);
#155=EDGE_CURVE('',#120,#121,#84,.T.);
#156=EDGE_CURVE('',#121,#120,#85,.T.);
#157=EDGE_CURVE('',#121,#118,#86,.T.);
#158=EDGE_CURVE('',#122,#123,#87,.T.);
#159=EDGE_CURVE('',#123,#122,#88,.T.);
#160=EDGE_CURVE('',#124,#125,#89,.T.);
#161=EDGE_CURVE('',#126,#124,#90,.T.);
#162=EDGE_CURVE('',#125,#126,#91,.T.);
#163=EDGE_CURVE('',#125,#123,#92,.T.);
#164=EDGE_CURVE('',#126,#127,#61,.T.);
#165=EDGE_CURVE('',#128,#127,#93,.T.);
#166=EDGE_CURVE('',#127,#128,#94,.T.);
#167=EDGE_CURVE('',#127,#129,#62,.T.);
#168=EDGE_CURVE('',#130,#129,#95,.T.);
#169=EDGE_CURVE('',#129,#130,#96,.T.);
#170=EDGE_CURVE('',#129,#131,#63,.T.);
#171=EDGE_CURVE('',#132,#131,#97,.T.);
#172=EDGE_CURVE('',#131,#132,#98,.T.);
#173=EDGE_CURVE('',#131,#133,#64,.T.);
#174=EDGE_CURVE('',#134,#133,#99,.T.);
#175=EDGE_CURVE('',#133,#134,#100,.T.);
#176=EDGE_CURVE('',#133,#135,#65,.T.);
#177=EDGE_CURVE('',#136,#135,#101,.T.);
#178=EDGE_CURVE('',#137,#136,#102,.T.);
#179=EDGE_CURVE('',#135,#137,#103,.T.);
#180=EDGE_CURVE('',#138,#139,#104,.T.);
#181=EDGE_CURVE('',#139,#138,#105,.T.);
#182=EDGE_CURVE('',#139,#136,#106,.T.);
#183=EDGE_CURVE('',#140,#141,#107,.T.);
#184=EDGE_CURVE('',#141,#140,#108,.T.);
#185=EDGE_CURVE('',#114,#141,#109,.T.);
#186=ORIENTED_EDGE('',*,*,#142,.F.);
#187=ORIENTED_EDGE('',*,*,#143,.F.);
#188=ORIENTED_EDGE('',*,*,#144,.T.);
#189=ORIENTED_EDGE('',*,*,#145,.T.);
#190=ORIENTED_EDGE('',*,*,#146,.T.);
#191=ORIENTED_EDGE('',*,*,#147,.T.);
#192=ORIENTED_EDGE('',*,*,#144,.F.);
#193=ORIENTED_EDGE('',*,*,#148,.F.);
#194=ORIENTED_EDGE('',*,*,#149,.F.);
#195=ORIENTED_EDGE('',*,*,#150,.T.);
#196=ORIENTED_EDGE('',*,*,#143,.T.);
#197=ORIENTED_EDGE('',*,*,#142,.T.);
#198=ORIENTED_EDGE('',*,*,#150,.F.);
#199=ORIENTED_EDGE('',*,*,#151,.F.);
#200=ORIENTED_EDGE('',*,*,#152,.F.);
#201=ORIENTED_EDGE('',*,*,#153,.T.);
#202=ORIENTED_EDGE('',*,*,#149,.T.);
#203=ORIENTED_EDGE('',*,*,#148,.T.);
#204=ORIENTED_EDGE('',*,*,#153,.F.);
#205=ORIENTED_EDGE('',*,*,#154,.F.);
#206=ORIENTED_EDGE('',*,*,#155,.F.);
#207=ORIENTED_EDGE('',*,*,#156,.F.);
#208=ORIENTED_EDGE('',*,*,#157,.T.);
#209=ORIENTED_EDGE('',*,*,#154,.T.);
#210=ORIENTED_EDGE('',*,*,#152,.T.);
#211=ORIENTED_EDGE('',*,*,#151,.T.);
#212=ORIENTED_EDGE('',*,*,#157,.F.);
#213=ORIENTED_EDGE('',*,*,#155,.T.);
#214=ORIENTED_EDGE('',*,*,#156,.T.);
#215=ORIENTED_EDGE('',*,*,#158,.F.);
#216=ORIENTED_EDGE('',*,*,#159,.F.);
#217=ORIENTED_EDGE('',*,*,#160,.F.);
#218=ORIENTED_EDGE('',*,*,#161,.F.);
#219=ORIENTED_EDGE('',*,*,#162,.F.);
#220=ORIENTED_EDGE('',*,*,#163,.T.);
#221=ORIENTED_EDGE('',*,*,#159,.T.);
#222=ORIENTED_EDGE('',*,*,#158,.T.);
#223=ORIENTED_EDGE('',*,*,#163,.F.);
#224=ORIENTED_EDGE('',*,*,#160,.T.);
#225=ORIENTED_EDGE('',*,*,#162,.T.);
#226=ORIENTED_EDGE('',*,*,#164,.T.);
#227=ORIENTED_EDGE('',*,*,#165,.F.);
#228=ORIENTED_EDGE('',*,*,#166,.F.);
#229=ORIENTED_EDGE('',*,*,#164,.F.);
#230=ORIENTED_EDGE('',*,*,#161,.T.);
#231=ORIENTED_EDGE('',*,*,#165,.T.);
#232=ORIENTED_EDGE('',*,*,#167,.T.);
#233=ORIENTED_EDGE('',*,*,#168,.F.);
#234=ORIENTED_EDGE('',*,*,#169,.F.);
#235=ORIENTED_EDGE('',*,*,#167,.F.);
#236=ORIENTED_EDGE('',*,*,#166,.T.);
#237=ORIENTED_EDGE('',*,*,#168,.T.);
#238=ORIENTED_EDGE('',*,*,#170,.T.);
#239=ORIENTED_EDGE('',*,*,#171,.F.);
#240=ORIENTED_EDGE('',*,*,#172,.F.);
#241=ORIENTED_EDGE('',*,*,#170,.F.);
#242=ORIENTED_EDGE('',*,*,#169,.T.);
#243=ORIENTED_EDGE('',*,*,#171,.T.);
#244=ORIENTED_EDGE('',*,*,#173,.T.);
#245=ORIENTED_EDGE('',*,*,#174,.F.);
#246=ORIENTED_EDGE('',*,*,#175,.F.);
#247=ORIENTED_EDGE('',*,*,#173,.F.);
#248=ORIENTED_EDGE('',*,*,#172,.T.);
#249=ORIENTED_EDGE('',*,*,#174,.T.);
#250=ORIENTED_EDGE('',*,*,#176,.T.);
#251=ORIENTED_EDGE('',*,*,#177,.F.);
#252=ORIENTED_EDGE('',*,*,#178,.F.);
#253=ORIENTED_EDGE('',*,*,#179,.F.);
#254=ORIENTED_EDGE('',*,*,#176,.F.);
#255=ORIENTED_EDGE('',*,*,#175,.T.);
#256=ORIENTED_EDGE('',*,*,#180,.F.);
#257=ORIENTED_EDGE('',*,*,#181,.F.);
#258=ORIENTED_EDGE('',*,*,#182,.T.);
#259=ORIENTED_EDGE('',*,*,#177,.T.);
#260=ORIENTED_EDGE('',*,*,#179,.T.);
#261=ORIENTED_EDGE('',*,*,#178,.T.);
#262=ORIENTED_EDGE('',*,*,#182,.F.);
#263=ORIENTED_EDGE('',*,*,#183,.F.);
#264=ORIENTED_EDGE('',*,*,#184,.F.);
#265=ORIENTED_EDGE('',*,*,#180,.T.);
#266=ORIENTED_EDGE('',*,*,#181,.T.);
#267=ORIENTED_EDGE('',*,*,#146,.F.);
#268=ORIENTED_EDGE('',*,*,#145,.F.);
#269=ORIENTED_EDGE('',*,*,#147,.F.);
#270=ORIENTED_EDGE('',*,*,#185,.T.);
#271=ORIENTED_EDGE('',*,*,#184,.T.);
#272=ORIENTED_EDGE('',*,*,#183,.T.);
#273=ORIENTED_EDGE('',*,*,#185,.F.);
#274=CYLINDRICAL_SURFACE('',#311,12.7);
#275=CYLINDRICAL_SURFACE('',#339,6.34999999999999);
#276=CYLINDRICAL_SURFACE('',#345,6.5);
#277=ADVANCED_FACE('',(#28),#274,.T.);
#278=ADVANCED_FACE('',(#29),#23,.T.);
#279=ADVANCED_FACE('',(#30),#24,.T.);
#280=ADVANCED_FACE('',(#31),#19,.T.);
#281=ADVANCED_FACE('',(#32,#15),#17,.T.);
#282=ADVANCED_FACE('',(#33),#20,.T.);
#283=ADVANCED_FACE('',(#34),#25,.F.);
#284=ADVANCED_FACE('',(#35),#275,.F.);
#285=ADVANCED_FACE('',(#36),#26,.F.);
#286=ADVANCED_FACE('',(#37),#276,.F.);
#287=ADVANCED_FACE('',(#38),#27,.F.);
#288=ADVANCED_FACE('',(#39),#21,.T.);
#289=ADVANCED_FACE('',(#40,#16),#18,.T.);
#290=ADVANCED_FACE('',(#41),#22,.T.);
#291=CLOSED_SHELL('',(#277,#278,#279,#280,#281,#282,#283,#284,#285,#286,
#287,#288,#289,#290));
#292=DERIVED_UNIT_ELEMENT(#294,1.);
#293=DERIVED_UNIT_ELEMENT(#567,3.);
#294=(
MASS_UNIT()
NAMED_UNIT(*)
SI_UNIT($,.GRAM.)
);
#295=DERIVED_UNIT((#292,#293));
#296=MEASURE_REPRESENTATION_ITEM('density measure',
POSITIVE_RATIO_MEASURE(1.),#295);
#297=PROPERTY_DEFINITION_REPRESENTATION(#302,#299);
#298=PROPERTY_DEFINITION_REPRESENTATION(#303,#300);
#299=REPRESENTATION('material name',(#301),#564);
#300=REPRESENTATION('density',(#296),#564);
#301=DESCRIPTIVE_REPRESENTATION_ITEM('Generic','Generic');
#302=PROPERTY_DEFINITION('material property','material name',#574);
#303=PROPERTY_DEFINITION('material property','density of part',#574);
#304=DATE_TIME_ROLE('creation_date');
#305=APPLIED_DATE_AND_TIME_ASSIGNMENT(#306,#304,(#574));
#306=DATE_AND_TIME(#307,#308);
#307=CALENDAR_DATE(2018,19,12);
#308=LOCAL_TIME(15,49,14.,#309);
#309=COORDINATED_UNIVERSAL_TIME_OFFSET(0,0,.BEHIND.);
#310=AXIS2_PLACEMENT_3D('placement',#471,#361,#362);
#311=AXIS2_PLACEMENT_3D('',#472,#363,#364);
#312=AXIS2_PLACEMENT_3D('',#475,#365,#366);
#313=AXIS2_PLACEMENT_3D('',#476,#367,#368);
#314=AXIS2_PLACEMENT_3D('',#480,#370,#371);
#315=AXIS2_PLACEMENT_3D('',#482,#372,#373);
#316=AXIS2_PLACEMENT_3D('',#483,#374,#375);
#317=AXIS2_PLACEMENT_3D('',#484,#376,#377);
#318=AXIS2_PLACEMENT_3D('',#487,#378,#379);
#319=AXIS2_PLACEMENT_3D('',#488,#380,#381);
#320=AXIS2_PLACEMENT_3D('',#490,#383,#384);
#321=AXIS2_PLACEMENT_3D('',#493,#385,#386);
#322=AXIS2_PLACEMENT_3D('',#495,#387,#388);
#323=AXIS2_PLACEMENT_3D('',#497,#390,#391);
#324=AXIS2_PLACEMENT_3D('',#498,#392,#393);
#325=AXIS2_PLACEMENT_3D('',#501,#394,#395);
#326=AXIS2_PLACEMENT_3D('',#502,#396,#397);
#327=AXIS2_PLACEMENT_3D('',#503,#398,#399);
#328=AXIS2_PLACEMENT_3D('',#504,#400,#401);
#329=AXIS2_PLACEMENT_3D('',#507,#402,#403);
#330=AXIS2_PLACEMENT_3D('',#508,#404,#405);
#331=AXIS2_PLACEMENT_3D('',#509,#406,#407);
#332=AXIS2_PLACEMENT_3D('',#512,#408,#409);
#333=AXIS2_PLACEMENT_3D('',#514,#410,#411);
#334=AXIS2_PLACEMENT_3D('',#515,#412,#413);
#335=AXIS2_PLACEMENT_3D('',#516,#414,#415);
#336=AXIS2_PLACEMENT_3D('',#517,#416,#417);
#337=AXIS2_PLACEMENT_3D('',#521,#419,#420);
#338=AXIS2_PLACEMENT_3D('',#522,#421,#422);
#339=AXIS2_PLACEMENT_3D('',#523,#423,#424);
#340=AXIS2_PLACEMENT_3D('',#527,#426,#427);
#341=AXIS2_PLACEMENT_3D('',#528,#428,#429);
#342=AXIS2_PLACEMENT_3D('',#529,#430,#431);
#343=AXIS2_PLACEMENT_3D('',#533,#433,#434);
#344=AXIS2_PLACEMENT_3D('',#534,#435,#436);
#345=AXIS2_PLACEMENT_3D('',#535,#437,#438);
#346=AXIS2_PLACEMENT_3D('',#539,#440,#441);
#347=AXIS2_PLACEMENT_3D('',#540,#442,#443);
#348=AXIS2_PLACEMENT_3D('',#541,#444,#445);
#349=AXIS2_PLACEMENT_3D('',#545,#447,#448);
#350=AXIS2_PLACEMENT_3D('',#547,#449,#450);
#351=AXIS2_PLACEMENT_3D('',#548,#451,#452);
#352=AXIS2_PLACEMENT_3D('',#549,#453,#454);
#353=AXIS2_PLACEMENT_3D('',#552,#455,#456);
#354=AXIS2_PLACEMENT_3D('',#553,#457,#458);
#355=AXIS2_PLACEMENT_3D('',#554,#459,#460);
#356=AXIS2_PLACEMENT_3D('',#555,#461,#462);
#357=AXIS2_PLACEMENT_3D('',#558,#463,#464);
#358=AXIS2_PLACEMENT_3D('',#559,#465,#466);
#359=AXIS2_PLACEMENT_3D('',#560,#467,#468);
#360=AXIS2_PLACEMENT_3D('',#561,#469,#470);
#361=DIRECTION('axis',(0.,0.,1.));
#362=DIRECTION('refdir',(1.,0.,0.));
#363=DIRECTION('center_axis',(1.,0.,0.));
#364=DIRECTION('ref_axis',(0.,1.,0.));
#365=DIRECTION('center_axis',(1.,0.,0.));
#366=DIRECTION('ref_axis',(0.,0.,-1.));
#367=DIRECTION('center_axis',(1.,0.,0.));
#368=DIRECTION('ref_axis',(0.,0.,-1.));
#369=DIRECTION('',(-1.,0.,0.));
#370=DIRECTION('center_axis',(1.,0.,0.));
#371=DIRECTION('ref_axis',(0.,0.,-1.));
#372=DIRECTION('center_axis',(1.,0.,0.));
#373=DIRECTION('ref_axis',(0.,0.,-1.));
#374=DIRECTION('center_axis',(1.,0.,0.));
#375=DIRECTION('ref_axis',(0.,0.,-1.));
#376=DIRECTION('center_axis',(-1.,0.,0.));
#377=DIRECTION('ref_axis',(0.,1.,0.));
#378=DIRECTION('center_axis',(1.,0.,0.));
#379=DIRECTION('ref_axis',(0.,0.,-1.));
#380=DIRECTION('center_axis',(1.,0.,0.));
#381=DIRECTION('ref_axis',(0.,0.,-1.));
#382=DIRECTION('',(-0.994521895368274,-0.104528463267646,-1.28010447960514E-17));
#383=DIRECTION('center_axis',(-1.,0.,0.));
#384=DIRECTION('ref_axis',(0.,1.,0.));
#385=DIRECTION('center_axis',(1.,0.,0.));
#386=DIRECTION('ref_axis',(0.,0.,-1.));
#387=DIRECTION('center_axis',(1.,0.,0.));
#388=DIRECTION('ref_axis',(0.,0.,-1.));
#389=DIRECTION('',(-0.999390827019096,-0.034899496702493,-4.27395569285617E-18));
#390=DIRECTION('center_axis',(1.,0.,0.));
#391=DIRECTION('ref_axis',(0.,0.,-1.));
#392=DIRECTION('center_axis',(1.,0.,0.));
#393=DIRECTION('ref_axis',(0.,0.,-1.));
#394=DIRECTION('center_axis',(1.,0.,0.));
#395=DIRECTION('ref_axis',(0.,0.,-1.));
#396=DIRECTION('center_axis',(1.,0.,0.));
#397=DIRECTION('ref_axis',(0.,0.,-1.));
#398=DIRECTION('center_axis',(0.,-1.,-1.22464679914735E-16));
#399=DIRECTION('ref_axis',(0.,-1.22464679914735E-16,1.));
#400=DIRECTION('center_axis',(1.,0.,0.));
#401=DIRECTION('ref_axis',(0.,0.,-1.));
#402=DIRECTION('center_axis',(1.,0.,0.));
#403=DIRECTION('ref_axis',(0.,0.,-1.));
#404=DIRECTION('center_axis',(1.,0.,0.));
#405=DIRECTION('ref_axis',(0.,0.,-1.));
#406=DIRECTION('center_axis',(1.,0.,0.));
#407=DIRECTION('ref_axis',(0.,0.,-1.));
#408=DIRECTION('center_axis',(1.,0.,0.));
#409=DIRECTION('ref_axis',(0.,0.,-1.));
#410=DIRECTION('center_axis',(1.,0.,0.));
#411=DIRECTION('ref_axis',(0.,0.,-1.));
#412=DIRECTION('center_axis',(1.,0.,0.));
#413=DIRECTION('ref_axis',(0.,0.,-1.));
#414=DIRECTION('center_axis',(0.,-1.,-1.22464679914735E-16));
#415=DIRECTION('ref_axis',(0.,-1.22464679914735E-16,1.));
#416=DIRECTION('center_axis',(1.,0.,0.));
#417=DIRECTION('ref_axis',(0.,1.,0.));
#418=DIRECTION('',(-0.866025403784442,0.499999999999994,6.12323399573669E-17));
#419=DIRECTION('center_axis',(1.,0.,0.));
#420=DIRECTION('ref_axis',(0.,0.,-1.));
#421=DIRECTION('center_axis',(1.,0.,0.));
#422=DIRECTION('ref_axis',(0.,0.,-1.));
#423=DIRECTION('center_axis',(1.,0.,0.));
#424=DIRECTION('ref_axis',(0.,1.,0.));
#425=DIRECTION('',(-1.,0.,0.));
#426=DIRECTION('center_axis',(1.,0.,0.));
#427=DIRECTION('ref_axis',(0.,0.,-1.));
#428=DIRECTION('center_axis',(1.,0.,0.));
#429=DIRECTION('ref_axis',(0.,0.,-1.));
#430=DIRECTION('center_axis',(-1.,0.,0.));
#431=DIRECTION('ref_axis',(0.,1.,0.));
#432=DIRECTION('',(-0.515038074910041,-0.85716730070212,-1.04972719113863E-16));
#433=DIRECTION('center_axis',(1.,0.,0.));
#434=DIRECTION('ref_axis',(0.,0.,-1.));
#435=DIRECTION('center_axis',(1.,0.,0.));
#436=DIRECTION('ref_axis',(0.,0.,-1.));
#437=DIRECTION('center_axis',(1.,0.,0.));
#438=DIRECTION('ref_axis',(0.,1.,0.));
#439=DIRECTION('',(-1.,0.,0.));
#440=DIRECTION('center_axis',(1.,0.,0.));
#441=DIRECTION('ref_axis',(0.,0.,-1.));
#442=DIRECTION('center_axis',(1.,0.,0.));
#443=DIRECTION('ref_axis',(0.,0.,-1.));
#444=DIRECTION('center_axis',(-1.,0.,0.));
#445=DIRECTION('ref_axis',(0.,1.,0.));
#446=DIRECTION('',(-0.866025403784447,-0.499999999999985,-6.12323399573658E-17));
#447=DIRECTION('center_axis',(1.,0.,0.));
#448=DIRECTION('ref_axis',(0.,0.,-1.));
#449=DIRECTION('center_axis',(1.,0.,0.));
#450=DIRECTION('ref_axis',(0.,0.,-1.));
#451=DIRECTION('center_axis',(1.,0.,0.));
#452=DIRECTION('ref_axis',(0.,0.,-1.));
#453=DIRECTION('center_axis',(1.,0.,0.));
#454=DIRECTION('ref_axis',(0.,0.,-1.));
#455=DIRECTION('center_axis',(1.,0.,0.));
#456=DIRECTION('ref_axis',(0.,0.,-1.));
#457=DIRECTION('center_axis',(1.,0.,0.));
#458=DIRECTION('ref_axis',(0.,0.,-1.));
#459=DIRECTION('center_axis',(0.,-1.,-1.22464679914735E-16));
#460=DIRECTION('ref_axis',(0.,-1.22464679914735E-16,1.));
#461=DIRECTION('center_axis',(-1.,0.,0.));
#462=DIRECTION('ref_axis',(0.,0.,1.));
#463=DIRECTION('center_axis',(1.,0.,0.));
#464=DIRECTION('ref_axis',(0.,0.,-1.));
#465=DIRECTION('center_axis',(1.,0.,0.));
#466=DIRECTION('ref_axis',(0.,0.,-1.));
#467=DIRECTION('center_axis',(1.,0.,0.));
#468=DIRECTION('ref_axis',(0.,0.,-1.));
#469=DIRECTION('center_axis',(0.,-1.,-1.22464679914735E-16));
#470=DIRECTION('ref_axis',(0.,-1.22464679914735E-16,1.));
#471=CARTESIAN_POINT('',(0.,0.,0.));
#472=CARTESIAN_POINT('Origin',(46.7465630633181,0.,0.));
#473=CARTESIAN_POINT('',(92.4931261266361,12.7,0.));
#474=CARTESIAN_POINT('',(92.4931261266361,-12.7,-1.55530143491714E-15));
#475=CARTESIAN_POINT('Origin',(92.4931261266361,0.,0.));
#476=CARTESIAN_POINT('Origin',(92.4931261266361,0.,0.));
#477=CARTESIAN_POINT('',(1.00000000000006,-12.7,-1.55530143491714E-15));
#478=CARTESIAN_POINT('',(46.7465630633181,-12.7,-1.55530143491714E-15));
#479=CARTESIAN_POINT('',(1.00000000000006,12.7,0.));
#480=CARTESIAN_POINT('Origin',(1.00000000000006,0.,0.));
#481=CARTESIAN_POINT('',(1.00000000000006,-1.55530143491714E-15,12.7));
#482=CARTESIAN_POINT('Origin',(1.00000000000006,0.,0.));
#483=CARTESIAN_POINT('Origin',(1.00000000000006,0.,0.));
#484=CARTESIAN_POINT('Origin',(99.3325630633181,0.,0.));
#485=CARTESIAN_POINT('',(106.172,11.2622924222445,0.));
#486=CARTESIAN_POINT('',(106.172,-11.2622924222445,-1.37923303659633E-15));
#487=CARTESIAN_POINT('Origin',(106.172,0.,0.));
#488=CARTESIAN_POINT('Origin',(106.172,0.,0.));
#489=CARTESIAN_POINT('',(99.3325630633181,-11.9811462111223,-1.46726723575673E-15));
#490=CARTESIAN_POINT('Origin',(154.444724874176,0.,0.));
#491=CARTESIAN_POINT('',(202.717449748351,7.89085102610602,0.));
#492=CARTESIAN_POINT('',(202.717449748351,-9.66350545166934E-16,7.89085102610602));
#493=CARTESIAN_POINT('Origin',(202.717449748351,0.,0.));
#494=CARTESIAN_POINT('',(202.717449748351,-7.89085102610602,-9.66350545166934E-16));
#495=CARTESIAN_POINT('Origin',(202.717449748351,0.,0.));
#496=CARTESIAN_POINT('',(154.444724874176,-9.57657172417528,-1.17279179088163E-15));
#497=CARTESIAN_POINT('Origin',(202.717449748351,0.,0.));
#498=CARTESIAN_POINT('Origin',(202.7,0.,0.));
#499=CARTESIAN_POINT('',(203.2,7.39115561259646,0.));
#500=CARTESIAN_POINT('',(203.2,-9.05155506296625E-16,7.39115561259646));
#501=CARTESIAN_POINT('Origin',(203.2,0.,0.));
#502=CARTESIAN_POINT('Origin',(203.2,0.,0.));
#503=CARTESIAN_POINT('Origin',(202.7,-9.05155506296625E-16,7.39115561259646));
#504=CARTESIAN_POINT('Origin',(203.2,7.04282032302751,0.));
#505=CARTESIAN_POINT('',(203.2,7.04282032302751,0.));
#506=CARTESIAN_POINT('',(203.2,-8.62496736556557E-16,7.04282032302751));
#507=CARTESIAN_POINT('Origin',(203.2,0.,0.));
#508=CARTESIAN_POINT('Origin',(203.2,0.,0.));
#509=CARTESIAN_POINT('Origin',(203.,0.,0.));
#510=CARTESIAN_POINT('',(203.1,6.86961524227067,0.));
#511=CARTESIAN_POINT('',(203.1,-8.41285231782064E-16,6.86961524227067));
#512=CARTESIAN_POINT('Origin',(203.1,0.,0.));
#513=CARTESIAN_POINT('',(203.1,-6.86961524227067,-8.41285231782065E-16));
#514=CARTESIAN_POINT('Origin',(203.1,0.,0.));
#515=CARTESIAN_POINT('Origin',(203.1,0.,0.));
#516=CARTESIAN_POINT('Origin',(203.,-8.62496736556557E-16,7.04282032302751));
#517=CARTESIAN_POINT('Origin',(202.65,0.,0.));
#518=CARTESIAN_POINT('',(202.2,-6.34999999999999,-7.77650717458569E-16));
#519=CARTESIAN_POINT('',(202.65,-6.60980762113533,-8.09467974620317E-16));
#520=CARTESIAN_POINT('',(202.2,6.34999999999999,0.));
#521=CARTESIAN_POINT('Origin',(202.2,0.,0.));
#522=CARTESIAN_POINT('Origin',(202.2,0.,0.));
#523=CARTESIAN_POINT('Origin',(189.7,0.,0.));
#524=CARTESIAN_POINT('',(177.2,-6.34999999999999,-7.77650717458569E-16));
#525=CARTESIAN_POINT('',(189.7,-6.34999999999999,-7.77650717458569E-16));
#526=CARTESIAN_POINT('',(177.2,6.34999999999999,0.));
#527=CARTESIAN_POINT('Origin',(177.2,0.,0.));
#528=CARTESIAN_POINT('Origin',(177.2,0.,0.));
#529=CARTESIAN_POINT('Origin',(177.154935453573,0.,0.));
#530=CARTESIAN_POINT('',(177.109870907146,-6.50000000000001,-7.96020419445781E-16));
#531=CARTESIAN_POINT('',(177.154935453573,-6.425,-7.86835568452174E-16));
#532=CARTESIAN_POINT('',(177.109870907146,6.5,0.));
#533=CARTESIAN_POINT('Origin',(177.109870907146,0.,0.));
#534=CARTESIAN_POINT('Origin',(177.109870907146,0.,0.));
#535=CARTESIAN_POINT('Origin',(89.054935453573,0.,0.));
#536=CARTESIAN_POINT('',(1.00000000000007,-6.5,-7.9602041944578E-16));
#537=CARTESIAN_POINT('',(89.054935453573,-6.5,-7.9602041944578E-16));
#538=CARTESIAN_POINT('',(1.00000000000006,6.5,0.));
#539=CARTESIAN_POINT('Origin',(1.00000000000006,0.,0.));
#540=CARTESIAN_POINT('Origin',(1.00000000000006,0.,0.));
#541=CARTESIAN_POINT('Origin',(0.550000000000058,0.,0.));
#542=CARTESIAN_POINT('',(0.100000000000055,-7.01961524227065,-8.59654933769272E-16));
#543=CARTESIAN_POINT('',(0.550000000000058,-6.75980762113532,-8.27837676607526E-16));
#544=CARTESIAN_POINT('',(0.100000000000055,-8.59654933769272E-16,7.01961524227065));
#545=CARTESIAN_POINT('Origin',(0.100000000000055,0.,0.));
#546=CARTESIAN_POINT('',(0.100000000000055,7.01961524227065,0.));
#547=CARTESIAN_POINT('Origin',(0.100000000000055,0.,0.));
#548=CARTESIAN_POINT('Origin',(0.100000000000055,0.,0.));
#549=CARTESIAN_POINT('Origin',(0.200000000000049,0.,0.));
#550=CARTESIAN_POINT('',(4.08006961549745E-14,7.19282032302755,0.));
#551=CARTESIAN_POINT('',(4.08006961549745E-14,-8.80866438543772E-16,7.19282032302755));
#552=CARTESIAN_POINT('Origin',(4.08006961549745E-14,0.,0.));
#553=CARTESIAN_POINT('Origin',(4.08006961549745E-14,0.,0.));
#554=CARTESIAN_POINT('Origin',(0.200000000000049,-8.80866438543772E-16,
7.19282032302755));
#555=CARTESIAN_POINT('Origin',(5.99520433297585E-14,11.7,0.));
#556=CARTESIAN_POINT('',(5.99520433297585E-14,11.7,0.));
#557=CARTESIAN_POINT('',(5.99520433297585E-14,-1.4328367550024E-15,11.7));
#558=CARTESIAN_POINT('Origin',(5.99520433297585E-14,0.,0.));
#559=CARTESIAN_POINT('Origin',(5.99520433297585E-14,0.,0.));
#560=CARTESIAN_POINT('Origin',(1.00000000000006,0.,0.));
#561=CARTESIAN_POINT('Origin',(1.00000000000006,-1.4328367550024E-15,11.7));
#562=UNCERTAINTY_MEASURE_WITH_UNIT(LENGTH_MEASURE(0.01),#566,
'DISTANCE_ACCURACY_VALUE',
'Maximum model space distance between geometric entities at asserted c
onnectivities');
#563=UNCERTAINTY_MEASURE_WITH_UNIT(LENGTH_MEASURE(0.01),#566,
'DISTANCE_ACCURACY_VALUE',
'Maximum model space distance between geometric entities at asserted c
onnectivities');
#564=(
GEOMETRIC_REPRESENTATION_CONTEXT(3)
GLOBAL_UNCERTAINTY_ASSIGNED_CONTEXT((#562))
GLOBAL_UNIT_ASSIGNED_CONTEXT((#566,#569,#568))
REPRESENTATION_CONTEXT('','3D')
);
#565=(
GEOMETRIC_REPRESENTATION_CONTEXT(3)
GLOBAL_UNCERTAINTY_ASSIGNED_CONTEXT((#563))
GLOBAL_UNIT_ASSIGNED_CONTEXT((#566,#569,#568))
REPRESENTATION_CONTEXT('','3D')
);
#566=(
LENGTH_UNIT()
NAMED_UNIT(*)
SI_UNIT(.MILLI.,.METRE.)
);
#567=(
LENGTH_UNIT()
NAMED_UNIT(*)
SI_UNIT(.CENTI.,.METRE.)
);
#568=(
NAMED_UNIT(*)
SI_UNIT($,.STERADIAN.)
SOLID_ANGLE_UNIT()
);
#569=(
NAMED_UNIT(*)
PLANE_ANGLE_UNIT()
SI_UNIT($,.RADIAN.)
);
#570=SHAPE_DEFINITION_REPRESENTATION(#571,#572);
#571=PRODUCT_DEFINITION_SHAPE('',$,#574);
#572=SHAPE_REPRESENTATION('',(#310),#564);
#573=PRODUCT_DEFINITION_CONTEXT('part definition',#578,'design');
#574=PRODUCT_DEFINITION('S100-SN050-0800','S100-SN050-0800',#575,#573);
#575=PRODUCT_DEFINITION_FORMATION('',$,#580);
#576=PRODUCT_RELATED_PRODUCT_CATEGORY('S100-SN050-0800',
'S100-SN050-0800',(#580));
#577=APPLICATION_PROTOCOL_DEFINITION('international standard',
'automotive_design',2009,#578);
#578=APPLICATION_CONTEXT(
'Core Data for Automotive Mechanical Design Process');
#579=PRODUCT_CONTEXT('part definition',#578,'mechanical');
#580=PRODUCT('S100-SN050-0800','S100-SN050-0800',$,(#579));
#581=PRESENTATION_STYLE_ASSIGNMENT((#582));
#582=SURFACE_STYLE_USAGE(.BOTH.,#583);
#583=SURFACE_SIDE_STYLE('',(#584));
#584=SURFACE_STYLE_FILL_AREA(#585);
#585=FILL_AREA_STYLE('',(#586));
#586=FILL_AREA_STYLE_COLOUR('',#587);
#587=COLOUR_RGB('',0.749019607843137,0.749019607843137,0.749019607843137);
ENDSEC;
END-ISO-10303-21;
