ISO-10303-21;
HEADER;
/* Generated by software containing ST-Developer
 * from STEP Tools, Inc. (www.steptools.com) 
 */

FILE_DESCRIPTION(
/* description */ (''),
/* implementation_level */ '2;1');

FILE_NAME(
/* name */ 'C:\\Users\\Lee\\OneDrive\\Documents\\Models\\S100-SD050-04
15.stp',
/* time_stamp */ '2018-12-19T16:32:47-06:00',
/* author */ ('Lee'),
/* organization */ (''),
/* preprocessor_version */ 'ST-DEVELOPER v17',
/* originating_system */ 'Autodesk Inventor LT',
/* authorisation */ '');

FILE_SCHEMA (('AUTOMOTIVE_DESIGN { 1 0 10303 214 3 1 1 }'));
ENDSEC;

DATA;
#10=MECHANICAL_DESIGN_GEOMETRIC_PRESENTATION_REPRESENTATION('',(#13),#565);
#11=SHAPE_REPRESENTATION_RELATIONSHIP('SRR','None',#572,#12);
#12=ADVANCED_BREP_SHAPE_REPRESENTATION('',(#14),#564);
#13=STYLED_ITEM('',(#581),#14);
#14=MANIFOLD_SOLID_BREP('Solid1',#291);
#15=FACE_BOUND('',#47,.T.);
#16=FACE_BOUND('',#56,.T.);
#17=PLANE('',#328);
#18=PLANE('',#356);
#19=TOROIDAL_SURFACE('',#324,9.32770778905405,1.);
#20=TOROIDAL_SURFACE('',#331,7.21602673749871,0.5);
#21=TOROIDAL_SURFACE('',#352,7.36602540378449,0.500000000000004);
#22=TOROIDAL_SURFACE('',#359,11.7,1.);
#23=CONICAL_SURFACE('',#317,11.9749098084871,0.113446418368179);
#24=CONICAL_SURFACE('',#320,10.7882879674439,0.0436332600096608);
#25=CONICAL_SURFACE('',#336,6.5665064824171,0.523600190113143);
#26=CONICAL_SURFACE('',#342,6.42500016627669,1.0209933022182);
#27=CONICAL_SURFACE('',#348,6.7165064604374,0.523598430609754);
#28=FACE_OUTER_BOUND('',#42,.T.);
#29=FACE_OUTER_BOUND('',#43,.T.);
#30=FACE_OUTER_BOUND('',#44,.T.);
#31=FACE_OUTER_BOUND('',#45,.T.);
#32=FACE_OUTER_BOUND('',#46,.T.);
#33=FACE_OUTER_BOUND('',#48,.T.);
#34=FACE_OUTER_BOUND('',#49,.T.);
#35=FACE_OUTER_BOUND('',#50,.T.);
#36=FACE_OUTER_BOUND('',#51,.T.);
#37=FACE_OUTER_BOUND('',#52,.T.);
#38=FACE_OUTER_BOUND('',#53,.T.);
#39=FACE_OUTER_BOUND('',#54,.T.);
#40=FACE_OUTER_BOUND('',#55,.T.);
#41=FACE_OUTER_BOUND('',#57,.T.);
#42=EDGE_LOOP('',(#186,#187,#188,#189,#190,#191,#192));
#43=EDGE_LOOP('',(#193,#194,#195,#196,#197,#198));
#44=EDGE_LOOP('',(#199,#200,#201,#202,#203,#204,#205));
#45=EDGE_LOOP('',(#206,#207,#208,#209,#210,#211,#212));
#46=EDGE_LOOP('',(#213,#214));
#47=EDGE_LOOP('',(#215,#216));
#48=EDGE_LOOP('',(#217,#218,#219,#220,#221,#222,#223));
#49=EDGE_LOOP('',(#224,#225,#226,#227,#228,#229,#230));
#50=EDGE_LOOP('',(#231,#232,#233,#234,#235,#236));
#51=EDGE_LOOP('',(#237,#238,#239,#240,#241,#242));
#52=EDGE_LOOP('',(#243,#244,#245,#246,#247,#248));
#53=EDGE_LOOP('',(#249,#250,#251,#252,#253,#254,#255));
#54=EDGE_LOOP('',(#256,#257,#258,#259,#260,#261,#262));
#55=EDGE_LOOP('',(#263,#264));
#56=EDGE_LOOP('',(#265,#266));
#57=EDGE_LOOP('',(#267,#268,#269,#270,#271,#272,#273));
#58=LINE('',#478,#66);
#59=LINE('',#489,#67);
#60=LINE('',#496,#68);
#61=LINE('',#519,#69);
#62=LINE('',#525,#70);
#63=LINE('',#531,#71);
#64=LINE('',#537,#72);
#65=LINE('',#543,#73);
#66=VECTOR('',#369,12.6999999232592);
#67=VECTOR('',#382,11.9749098084871);
#68=VECTOR('',#389,10.7882879674439);
#69=VECTOR('',#418,6.56650648241711);
#70=VECTOR('',#425,6.35000006085104);
#71=VECTOR('',#432,6.42500016627669);
#72=VECTOR('',#439,6.50000027170222);
#73=VECTOR('',#446,6.7165064604374);
#74=CIRCLE('',#312,12.6999998465184);
#75=CIRCLE('',#313,12.6999998465184);
#76=CIRCLE('',#314,12.7);
#77=CIRCLE('',#315,12.7);
#78=CIRCLE('',#316,12.7);
#79=CIRCLE('',#318,11.2498197704558);
#80=CIRCLE('',#319,11.2498197704558);
#81=CIRCLE('',#321,10.3267561644321);
#82=CIRCLE('',#322,10.3267561644321);
#83=CIRCLE('',#323,10.3267561644321);
#84=CIRCLE('',#325,9.32770778905405);
#85=CIRCLE('',#326,9.32770778905405);
#86=CIRCLE('',#327,1.);
#87=CIRCLE('',#329,7.21602493509324);
#88=CIRCLE('',#330,7.21602493509324);
#89=CIRCLE('',#332,6.78301290398312);
#90=CIRCLE('',#333,6.78301290398312);
#91=CIRCLE('',#334,6.78301290398312);
#92=CIRCLE('',#335,0.5);
#93=CIRCLE('',#337,6.35000006085109);
#94=CIRCLE('',#338,6.35000006085109);
#95=CIRCLE('',#340,6.35000006085098);
#96=CIRCLE('',#341,6.35000006085098);
#97=CIRCLE('',#343,6.50000027170241);
#98=CIRCLE('',#344,6.50000027170241);
#99=CIRCLE('',#346,6.50000027170204);
#100=CIRCLE('',#347,6.50000027170204);
#101=CIRCLE('',#349,6.93301264917277);
#102=CIRCLE('',#350,6.93301264917277);
#103=CIRCLE('',#351,6.93301264917277);
#104=CIRCLE('',#353,7.36602540378448);
#105=CIRCLE('',#354,7.36602540378448);
#106=CIRCLE('',#355,0.500000000000004);
#107=CIRCLE('',#357,11.7);
#108=CIRCLE('',#358,11.7);
#109=CIRCLE('',#360,1.);
#110=VERTEX_POINT('',#473);
#111=VERTEX_POINT('',#474);
#112=VERTEX_POINT('',#477);
#113=VERTEX_POINT('',#479);
#114=VERTEX_POINT('',#481);
#115=VERTEX_POINT('',#485);
#116=VERTEX_POINT('',#486);
#117=VERTEX_POINT('',#491);
#118=VERTEX_POINT('',#492);
#119=VERTEX_POINT('',#494);
#120=VERTEX_POINT('',#499);
#121=VERTEX_POINT('',#500);
#122=VERTEX_POINT('',#505);
#123=VERTEX_POINT('',#506);
#124=VERTEX_POINT('',#510);
#125=VERTEX_POINT('',#511);
#126=VERTEX_POINT('',#513);
#127=VERTEX_POINT('',#518);
#128=VERTEX_POINT('',#520);
#129=VERTEX_POINT('',#524);
#130=VERTEX_POINT('',#526);
#131=VERTEX_POINT('',#530);
#132=VERTEX_POINT('',#532);
#133=VERTEX_POINT('',#536);
#134=VERTEX_POINT('',#538);
#135=VERTEX_POINT('',#542);
#136=VERTEX_POINT('',#544);
#137=VERTEX_POINT('',#546);
#138=VERTEX_POINT('',#550);
#139=VERTEX_POINT('',#551);
#140=VERTEX_POINT('',#556);
#141=VERTEX_POINT('',#557);
#142=EDGE_CURVE('',#110,#111,#74,.T.);
#143=EDGE_CURVE('',#111,#110,#75,.T.);
#144=EDGE_CURVE('',#111,#112,#58,.T.);
#145=EDGE_CURVE('',#112,#113,#76,.T.);
#146=EDGE_CURVE('',#113,#114,#77,.T.);
#147=EDGE_CURVE('',#114,#112,#78,.T.);
#148=EDGE_CURVE('',#115,#116,#79,.T.);
#149=EDGE_CURVE('',#116,#115,#80,.T.);
#150=EDGE_CURVE('',#116,#111,#59,.T.);
#151=EDGE_CURVE('',#117,#118,#81,.T.);
#152=EDGE_CURVE('',#119,#117,#82,.T.);
#153=EDGE_CURVE('',#119,#116,#60,.T.);
#154=EDGE_CURVE('',#118,#119,#83,.T.);
#155=EDGE_CURVE('',#120,#121,#84,.T.);
#156=EDGE_CURVE('',#121,#120,#85,.T.);
#157=EDGE_CURVE('',#121,#118,#86,.T.);
#158=EDGE_CURVE('',#122,#123,#87,.T.);
#159=EDGE_CURVE('',#123,#122,#88,.T.);
#160=EDGE_CURVE('',#124,#125,#89,.T.);
#161=EDGE_CURVE('',#126,#124,#90,.T.);
#162=EDGE_CURVE('',#125,#126,#91,.T.);
#163=EDGE_CURVE('',#125,#123,#92,.T.);
#164=EDGE_CURVE('',#126,#127,#61,.T.);
#165=EDGE_CURVE('',#128,#127,#93,.T.);
#166=EDGE_CURVE('',#127,#128,#94,.T.);
#167=EDGE_CURVE('',#127,#129,#62,.T.);
#168=EDGE_CURVE('',#130,#129,#95,.T.);
#169=EDGE_CURVE('',#129,#130,#96,.T.);
#170=EDGE_CURVE('',#129,#131,#63,.T.);
#171=EDGE_CURVE('',#132,#131,#97,.T.);
#172=EDGE_CURVE('',#131,#132,#98,.T.);
#173=EDGE_CURVE('',#131,#133,#64,.T.);
#174=EDGE_CURVE('',#134,#133,#99,.T.);
#175=EDGE_CURVE('',#133,#134,#100,.T.);
#176=EDGE_CURVE('',#133,#135,#65,.T.);
#177=EDGE_CURVE('',#136,#135,#101,.T.);
#178=EDGE_CURVE('',#137,#136,#102,.T.);
#179=EDGE_CURVE('',#135,#137,#103,.T.);
#180=EDGE_CURVE('',#138,#139,#104,.T.);
#181=EDGE_CURVE('',#139,#138,#105,.T.);
#182=EDGE_CURVE('',#139,#136,#106,.T.);
#183=EDGE_CURVE('',#140,#141,#107,.T.);
#184=EDGE_CURVE('',#141,#140,#108,.T.);
#185=EDGE_CURVE('',#114,#141,#109,.T.);
#186=ORIENTED_EDGE('',*,*,#142,.F.);
#187=ORIENTED_EDGE('',*,*,#143,.F.);
#188=ORIENTED_EDGE('',*,*,#144,.T.);
#189=ORIENTED_EDGE('',*,*,#145,.T.);
#190=ORIENTED_EDGE('',*,*,#146,.T.);
#191=ORIENTED_EDGE('',*,*,#147,.T.);
#192=ORIENTED_EDGE('',*,*,#144,.F.);
#193=ORIENTED_EDGE('',*,*,#148,.F.);
#194=ORIENTED_EDGE('',*,*,#149,.F.);
#195=ORIENTED_EDGE('',*,*,#150,.T.);
#196=ORIENTED_EDGE('',*,*,#143,.T.);
#197=ORIENTED_EDGE('',*,*,#142,.T.);
#198=ORIENTED_EDGE('',*,*,#150,.F.);
#199=ORIENTED_EDGE('',*,*,#151,.F.);
#200=ORIENTED_EDGE('',*,*,#152,.F.);
#201=ORIENTED_EDGE('',*,*,#153,.T.);
#202=ORIENTED_EDGE('',*,*,#149,.T.);
#203=ORIENTED_EDGE('',*,*,#148,.T.);
#204=ORIENTED_EDGE('',*,*,#153,.F.);
#205=ORIENTED_EDGE('',*,*,#154,.F.);
#206=ORIENTED_EDGE('',*,*,#155,.F.);
#207=ORIENTED_EDGE('',*,*,#156,.F.);
#208=ORIENTED_EDGE('',*,*,#157,.T.);
#209=ORIENTED_EDGE('',*,*,#154,.T.);
#210=ORIENTED_EDGE('',*,*,#152,.T.);
#211=ORIENTED_EDGE('',*,*,#151,.T.);
#212=ORIENTED_EDGE('',*,*,#157,.F.);
#213=ORIENTED_EDGE('',*,*,#155,.T.);
#214=ORIENTED_EDGE('',*,*,#156,.T.);
#215=ORIENTED_EDGE('',*,*,#158,.F.);
#216=ORIENTED_EDGE('',*,*,#159,.F.);
#217=ORIENTED_EDGE('',*,*,#160,.F.);
#218=ORIENTED_EDGE('',*,*,#161,.F.);
#219=ORIENTED_EDGE('',*,*,#162,.F.);
#220=ORIENTED_EDGE('',*,*,#163,.T.);
#221=ORIENTED_EDGE('',*,*,#159,.T.);
#222=ORIENTED_EDGE('',*,*,#158,.T.);
#223=ORIENTED_EDGE('',*,*,#163,.F.);
#224=ORIENTED_EDGE('',*,*,#160,.T.);
#225=ORIENTED_EDGE('',*,*,#162,.T.);
#226=ORIENTED_EDGE('',*,*,#164,.T.);
#227=ORIENTED_EDGE('',*,*,#165,.F.);
#228=ORIENTED_EDGE('',*,*,#166,.F.);
#229=ORIENTED_EDGE('',*,*,#164,.F.);
#230=ORIENTED_EDGE('',*,*,#161,.T.);
#231=ORIENTED_EDGE('',*,*,#165,.T.);
#232=ORIENTED_EDGE('',*,*,#167,.T.);
#233=ORIENTED_EDGE('',*,*,#168,.F.);
#234=ORIENTED_EDGE('',*,*,#169,.F.);
#235=ORIENTED_EDGE('',*,*,#167,.F.);
#236=ORIENTED_EDGE('',*,*,#166,.T.);
#237=ORIENTED_EDGE('',*,*,#168,.T.);
#238=ORIENTED_EDGE('',*,*,#170,.T.);
#239=ORIENTED_EDGE('',*,*,#171,.F.);
#240=ORIENTED_EDGE('',*,*,#172,.F.);
#241=ORIENTED_EDGE('',*,*,#170,.F.);
#242=ORIENTED_EDGE('',*,*,#169,.T.);
#243=ORIENTED_EDGE('',*,*,#171,.T.);
#244=ORIENTED_EDGE('',*,*,#173,.T.);
#245=ORIENTED_EDGE('',*,*,#174,.F.);
#246=ORIENTED_EDGE('',*,*,#175,.F.);
#247=ORIENTED_EDGE('',*,*,#173,.F.);
#248=ORIENTED_EDGE('',*,*,#172,.T.);
#249=ORIENTED_EDGE('',*,*,#174,.T.);
#250=ORIENTED_EDGE('',*,*,#176,.T.);
#251=ORIENTED_EDGE('',*,*,#177,.F.);
#252=ORIENTED_EDGE('',*,*,#178,.F.);
#253=ORIENTED_EDGE('',*,*,#179,.F.);
#254=ORIENTED_EDGE('',*,*,#176,.F.);
#255=ORIENTED_EDGE('',*,*,#175,.T.);
#256=ORIENTED_EDGE('',*,*,#180,.F.);
#257=ORIENTED_EDGE('',*,*,#181,.F.);
#258=ORIENTED_EDGE('',*,*,#182,.T.);
#259=ORIENTED_EDGE('',*,*,#177,.T.);
#260=ORIENTED_EDGE('',*,*,#179,.T.);
#261=ORIENTED_EDGE('',*,*,#178,.T.);
#262=ORIENTED_EDGE('',*,*,#182,.F.);
#263=ORIENTED_EDGE('',*,*,#183,.F.);
#264=ORIENTED_EDGE('',*,*,#184,.F.);
#265=ORIENTED_EDGE('',*,*,#180,.T.);
#266=ORIENTED_EDGE('',*,*,#181,.T.);
#267=ORIENTED_EDGE('',*,*,#146,.F.);
#268=ORIENTED_EDGE('',*,*,#145,.F.);
#269=ORIENTED_EDGE('',*,*,#147,.F.);
#270=ORIENTED_EDGE('',*,*,#185,.T.);
#271=ORIENTED_EDGE('',*,*,#184,.T.);
#272=ORIENTED_EDGE('',*,*,#183,.T.);
#273=ORIENTED_EDGE('',*,*,#185,.F.);
#274=CYLINDRICAL_SURFACE('',#311,12.6999999232592);
#275=CYLINDRICAL_SURFACE('',#339,6.35000006085104);
#276=CYLINDRICAL_SURFACE('',#345,6.50000027170222);
#277=ADVANCED_FACE('',(#28),#274,.T.);
#278=ADVANCED_FACE('',(#29),#23,.T.);
#279=ADVANCED_FACE('',(#30),#24,.T.);
#280=ADVANCED_FACE('',(#31),#19,.T.);
#281=ADVANCED_FACE('',(#32,#15),#17,.T.);
#282=ADVANCED_FACE('',(#33),#20,.T.);
#283=ADVANCED_FACE('',(#34),#25,.F.);
#284=ADVANCED_FACE('',(#35),#275,.F.);
#285=ADVANCED_FACE('',(#36),#26,.F.);
#286=ADVANCED_FACE('',(#37),#276,.F.);
#287=ADVANCED_FACE('',(#38),#27,.F.);
#288=ADVANCED_FACE('',(#39),#21,.T.);
#289=ADVANCED_FACE('',(#40,#16),#18,.T.);
#290=ADVANCED_FACE('',(#41),#22,.T.);
#291=CLOSED_SHELL('',(#277,#278,#279,#280,#281,#282,#283,#284,#285,#286,
#287,#288,#289,#290));
#292=DERIVED_UNIT_ELEMENT(#294,1.);
#293=DERIVED_UNIT_ELEMENT(#567,3.);
#294=(
MASS_UNIT()
NAMED_UNIT(*)
SI_UNIT($,.GRAM.)
);
#295=DERIVED_UNIT((#292,#293));
#296=MEASURE_REPRESENTATION_ITEM('density measure',
POSITIVE_RATIO_MEASURE(1.),#295);
#297=PROPERTY_DEFINITION_REPRESENTATION(#302,#299);
#298=PROPERTY_DEFINITION_REPRESENTATION(#303,#300);
#299=REPRESENTATION('material name',(#301),#564);
#300=REPRESENTATION('density',(#296),#564);
#301=DESCRIPTIVE_REPRESENTATION_ITEM('Generic','Generic');
#302=PROPERTY_DEFINITION('material property','material name',#574);
#303=PROPERTY_DEFINITION('material property','density of part',#574);
#304=DATE_TIME_ROLE('creation_date');
#305=APPLIED_DATE_AND_TIME_ASSIGNMENT(#306,#304,(#574));
#306=DATE_AND_TIME(#307,#308);
#307=CALENDAR_DATE(2018,19,12);
#308=LOCAL_TIME(16,30,45.,#309);
#309=COORDINATED_UNIVERSAL_TIME_OFFSET(0,0,.BEHIND.);
#310=AXIS2_PLACEMENT_3D('placement',#471,#361,#362);
#311=AXIS2_PLACEMENT_3D('',#472,#363,#364);
#312=AXIS2_PLACEMENT_3D('',#475,#365,#366);
#313=AXIS2_PLACEMENT_3D('',#476,#367,#368);
#314=AXIS2_PLACEMENT_3D('',#480,#370,#371);
#315=AXIS2_PLACEMENT_3D('',#482,#372,#373);
#316=AXIS2_PLACEMENT_3D('',#483,#374,#375);
#317=AXIS2_PLACEMENT_3D('',#484,#376,#377);
#318=AXIS2_PLACEMENT_3D('',#487,#378,#379);
#319=AXIS2_PLACEMENT_3D('',#488,#380,#381);
#320=AXIS2_PLACEMENT_3D('',#490,#383,#384);
#321=AXIS2_PLACEMENT_3D('',#493,#385,#386);
#322=AXIS2_PLACEMENT_3D('',#495,#387,#388);
#323=AXIS2_PLACEMENT_3D('',#497,#390,#391);
#324=AXIS2_PLACEMENT_3D('',#498,#392,#393);
#325=AXIS2_PLACEMENT_3D('',#501,#394,#395);
#326=AXIS2_PLACEMENT_3D('',#502,#396,#397);
#327=AXIS2_PLACEMENT_3D('',#503,#398,#399);
#328=AXIS2_PLACEMENT_3D('',#504,#400,#401);
#329=AXIS2_PLACEMENT_3D('',#507,#402,#403);
#330=AXIS2_PLACEMENT_3D('',#508,#404,#405);
#331=AXIS2_PLACEMENT_3D('',#509,#406,#407);
#332=AXIS2_PLACEMENT_3D('',#512,#408,#409);
#333=AXIS2_PLACEMENT_3D('',#514,#410,#411);
#334=AXIS2_PLACEMENT_3D('',#515,#412,#413);
#335=AXIS2_PLACEMENT_3D('',#516,#414,#415);
#336=AXIS2_PLACEMENT_3D('',#517,#416,#417);
#337=AXIS2_PLACEMENT_3D('',#521,#419,#420);
#338=AXIS2_PLACEMENT_3D('',#522,#421,#422);
#339=AXIS2_PLACEMENT_3D('',#523,#423,#424);
#340=AXIS2_PLACEMENT_3D('',#527,#426,#427);
#341=AXIS2_PLACEMENT_3D('',#528,#428,#429);
#342=AXIS2_PLACEMENT_3D('',#529,#430,#431);
#343=AXIS2_PLACEMENT_3D('',#533,#433,#434);
#344=AXIS2_PLACEMENT_3D('',#534,#435,#436);
#345=AXIS2_PLACEMENT_3D('',#535,#437,#438);
#346=AXIS2_PLACEMENT_3D('',#539,#440,#441);
#347=AXIS2_PLACEMENT_3D('',#540,#442,#443);
#348=AXIS2_PLACEMENT_3D('',#541,#444,#445);
#349=AXIS2_PLACEMENT_3D('',#545,#447,#448);
#350=AXIS2_PLACEMENT_3D('',#547,#449,#450);
#351=AXIS2_PLACEMENT_3D('',#548,#451,#452);
#352=AXIS2_PLACEMENT_3D('',#549,#453,#454);
#353=AXIS2_PLACEMENT_3D('',#552,#455,#456);
#354=AXIS2_PLACEMENT_3D('',#553,#457,#458);
#355=AXIS2_PLACEMENT_3D('',#554,#459,#460);
#356=AXIS2_PLACEMENT_3D('',#555,#461,#462);
#357=AXIS2_PLACEMENT_3D('',#558,#463,#464);
#358=AXIS2_PLACEMENT_3D('',#559,#465,#466);
#359=AXIS2_PLACEMENT_3D('',#560,#467,#468);
#360=AXIS2_PLACEMENT_3D('',#561,#469,#470);
#361=DIRECTION('axis',(0.,0.,1.));
#362=DIRECTION('refdir',(1.,0.,0.));
#363=DIRECTION('center_axis',(1.,-4.67985605488831E-15,0.));
#364=DIRECTION('ref_axis',(4.67185175725498E-15,1.,0.));
#365=DIRECTION('center_axis',(1.,-4.67985605488831E-15,0.));
#366=DIRECTION('ref_axis',(0.,0.,-1.));
#367=DIRECTION('center_axis',(1.,-4.67985605488831E-15,0.));
#368=DIRECTION('ref_axis',(0.,0.,-1.));
#369=DIRECTION('',(-1.,4.67985605488831E-15,0.));
#370=DIRECTION('center_axis',(1.,-4.67985605488831E-15,0.));
#371=DIRECTION('ref_axis',(0.,0.,-1.));
#372=DIRECTION('center_axis',(1.,-4.67985605488831E-15,0.));
#373=DIRECTION('ref_axis',(0.,0.,-1.));
#374=DIRECTION('center_axis',(1.,-4.67985605488831E-15,0.));
#375=DIRECTION('ref_axis',(0.,0.,-1.));
#376=DIRECTION('center_axis',(-1.,4.67985605488831E-15,0.));
#377=DIRECTION('ref_axis',(4.67185175725498E-15,1.,0.));
#378=DIRECTION('center_axis',(1.,-4.67985605488831E-15,0.));
#379=DIRECTION('ref_axis',(0.,0.,-1.));
#380=DIRECTION('center_axis',(1.,-4.67985605488831E-15,0.));
#381=DIRECTION('ref_axis',(0.,0.,-1.));
#382=DIRECTION('',(-0.99357185375343,-0.113203230647245,-1.38633974065294E-17));
#383=DIRECTION('center_axis',(-1.,4.67985605488831E-15,0.));
#384=DIRECTION('ref_axis',(4.67185175725498E-15,1.,0.));
#385=DIRECTION('center_axis',(1.,-4.67985605488831E-15,0.));
#386=DIRECTION('ref_axis',(0.,0.,-1.));
#387=DIRECTION('center_axis',(1.,-4.67985605488831E-15,0.));
#388=DIRECTION('ref_axis',(0.,0.,-1.));
#389=DIRECTION('',(-0.999048220329554,-0.0436194160478085,-5.34183782436311E-18));
#390=DIRECTION('center_axis',(1.,-4.67985605488831E-15,0.));
#391=DIRECTION('ref_axis',(0.,0.,-1.));
#392=DIRECTION('center_axis',(1.,-4.67985605488831E-15,0.));
#393=DIRECTION('ref_axis',(0.,0.,-1.));
#394=DIRECTION('center_axis',(1.,-4.67985605488831E-15,0.));
#395=DIRECTION('ref_axis',(0.,0.,-1.));
#396=DIRECTION('center_axis',(1.,-4.67985605488831E-15,0.));
#397=DIRECTION('ref_axis',(0.,0.,-1.));
#398=DIRECTION('center_axis',(-4.67985605488831E-15,-1.,-1.22464679914738E-16));
#399=DIRECTION('ref_axis',(0.,-1.22464679914738E-16,1.));
#400=DIRECTION('center_axis',(1.,-4.67985605488831E-15,0.));
#401=DIRECTION('ref_axis',(0.,0.,-1.));
#402=DIRECTION('center_axis',(1.,-4.67985605488831E-15,0.));
#403=DIRECTION('ref_axis',(0.,0.,-1.));
#404=DIRECTION('center_axis',(1.,-4.67985605488831E-15,0.));
#405=DIRECTION('ref_axis',(0.,0.,-1.));
#406=DIRECTION('center_axis',(1.,-4.67985605488831E-15,0.));
#407=DIRECTION('ref_axis',(0.,0.,-1.));
#408=DIRECTION('center_axis',(1.,-4.67985605488831E-15,0.));
#409=DIRECTION('ref_axis',(0.,0.,-1.));
#410=DIRECTION('center_axis',(1.,-4.67985605488831E-15,0.));
#411=DIRECTION('ref_axis',(0.,0.,-1.));
#412=DIRECTION('center_axis',(1.,-4.67985605488831E-15,0.));
#413=DIRECTION('ref_axis',(0.,0.,-1.));
#414=DIRECTION('center_axis',(-4.67985605488831E-15,-1.,-1.22464679914739E-16));
#415=DIRECTION('ref_axis',(0.,-1.22464679914739E-16,1.));
#416=DIRECTION('center_axis',(1.,-4.67985605488831E-15,0.));
#417=DIRECTION('ref_axis',(4.67185175725498E-15,1.,0.));
#418=DIRECTION('',(-0.866024696526148,0.500001225005293,6.12324899772482E-17));
#419=DIRECTION('center_axis',(1.,-4.67985605488831E-15,0.));
#420=DIRECTION('ref_axis',(0.,0.,-1.));
#421=DIRECTION('center_axis',(1.,-4.67985605488831E-15,0.));
#422=DIRECTION('ref_axis',(0.,0.,-1.));
#423=DIRECTION('center_axis',(1.,-4.67985605488831E-15,0.));
#424=DIRECTION('ref_axis',(4.67185175725498E-15,1.,0.));
#425=DIRECTION('',(-1.,4.67985605488831E-15,0.));
#426=DIRECTION('center_axis',(1.,-4.67985605488831E-15,0.));
#427=DIRECTION('ref_axis',(0.,0.,-1.));
#428=DIRECTION('center_axis',(1.,-4.67985605488831E-15,0.));
#429=DIRECTION('ref_axis',(0.,0.,-1.));
#430=DIRECTION('center_axis',(-1.,4.67985605488831E-15,0.));
#431=DIRECTION('ref_axis',(4.67185175725498E-15,1.,0.));
#432=DIRECTION('',(-0.522519292413188,-0.852627462058325,-1.04416749227486E-16));
#433=DIRECTION('center_axis',(1.,-4.67985605488831E-15,0.));
#434=DIRECTION('ref_axis',(0.,0.,-1.));
#435=DIRECTION('center_axis',(1.,-4.67985605488831E-15,0.));
#436=DIRECTION('ref_axis',(0.,0.,-1.));
#437=DIRECTION('center_axis',(1.,-4.67985605488831E-15,0.));
#438=DIRECTION('ref_axis',(4.67185175725498E-15,1.,0.));
#439=DIRECTION('',(-1.,4.67985605488831E-15,0.));
#440=DIRECTION('center_axis',(1.,-4.67985605488831E-15,0.));
#441=DIRECTION('ref_axis',(0.,0.,-1.));
#442=DIRECTION('center_axis',(1.,-4.67985605488831E-15,0.));
#443=DIRECTION('ref_axis',(0.,0.,-1.));
#444=DIRECTION('center_axis',(-1.,4.67985605488831E-15,0.));
#445=DIRECTION('ref_axis',(4.67185175725498E-15,1.,0.));
#446=DIRECTION('',(-0.866025576278662,-0.499999701231122,-6.12323033687332E-17));
#447=DIRECTION('center_axis',(1.,-4.67985605488831E-15,0.));
#448=DIRECTION('ref_axis',(0.,0.,-1.));
#449=DIRECTION('center_axis',(1.,-4.67985605488831E-15,0.));
#450=DIRECTION('ref_axis',(0.,0.,-1.));
#451=DIRECTION('center_axis',(1.,-4.67985605488831E-15,0.));
#452=DIRECTION('ref_axis',(0.,0.,-1.));
#453=DIRECTION('center_axis',(1.,-4.67985605488831E-15,0.));
#454=DIRECTION('ref_axis',(0.,0.,-1.));
#455=DIRECTION('center_axis',(1.,-4.67985605488831E-15,0.));
#456=DIRECTION('ref_axis',(0.,0.,-1.));
#457=DIRECTION('center_axis',(1.,-4.67985605488831E-15,0.));
#458=DIRECTION('ref_axis',(0.,0.,-1.));
#459=DIRECTION('center_axis',(-4.67985605488831E-15,-1.,-1.22464679914735E-16));
#460=DIRECTION('ref_axis',(0.,-1.22464679914735E-16,1.));
#461=DIRECTION('center_axis',(-1.,4.67985605488831E-15,0.));
#462=DIRECTION('ref_axis',(0.,0.,1.));
#463=DIRECTION('center_axis',(1.,-4.67985605488831E-15,0.));
#464=DIRECTION('ref_axis',(0.,0.,-1.));
#465=DIRECTION('center_axis',(1.,-4.67985605488831E-15,0.));
#466=DIRECTION('ref_axis',(0.,0.,-1.));
#467=DIRECTION('center_axis',(1.,-4.67985605488831E-15,0.));
#468=DIRECTION('ref_axis',(0.,0.,-1.));
#469=DIRECTION('center_axis',(-4.67985605488831E-15,-1.,-1.22464679914735E-16));
#470=DIRECTION('ref_axis',(0.,-1.22464679914735E-16,1.));
#471=CARTESIAN_POINT('',(0.,0.,0.));
#472=CARTESIAN_POINT('Origin',(35.7919660508632,-1.72182788165626E-13,0.));
#473=CARTESIAN_POINT('',(70.5839321017265,12.6999998465181,0.));
#474=CARTESIAN_POINT('',(70.5839321017264,-12.6999999232596,-1.5553014255191E-15));
#475=CARTESIAN_POINT('Origin',(70.5839321017265,-3.35004181150227E-13,0.));
#476=CARTESIAN_POINT('Origin',(70.5839321017265,-3.35004181150227E-13,0.));
#477=CARTESIAN_POINT('',(0.999999999999894,-12.6999999232592,-1.5553014255191E-15));
#478=CARTESIAN_POINT('',(35.7919660508632,-12.6999999232594,-1.5553014255191E-15));
#479=CARTESIAN_POINT('',(1.00000000000001,12.7,0.));
#480=CARTESIAN_POINT('Origin',(0.999999999999953,-9.36139518102502E-15,
0.));
#481=CARTESIAN_POINT('',(0.999999999999952,-1.09166966159422E-14,12.7));
#482=CARTESIAN_POINT('Origin',(0.999999999999953,-9.36139518102502E-15,
0.));
#483=CARTESIAN_POINT('Origin',(0.999999999999953,-9.36139518102502E-15,
0.));
#484=CARTESIAN_POINT('Origin',(76.9479647278785,-3.64786937769231E-13,0.));
#485=CARTESIAN_POINT('',(83.3119973540306,11.2498197704554,0.));
#486=CARTESIAN_POINT('',(83.3119973540305,-11.2498197704562,-1.37770557728733E-15));
#487=CARTESIAN_POINT('Origin',(83.3119973540306,-3.94569694388236E-13,0.));
#488=CARTESIAN_POINT('Origin',(83.3119973540306,-3.94569694388236E-13,0.));
#489=CARTESIAN_POINT('',(76.9479647278785,-11.9749098084875,-1.4665034967042E-15));
#490=CARTESIAN_POINT('Origin',(93.8828065991402,-4.44039560039031E-13,0.));
#491=CARTESIAN_POINT('',(104.45361584425,10.3267561644316,0.));
#492=CARTESIAN_POINT('',(104.45361584425,-4.94774088578061E-13,10.3267561644321));
#493=CARTESIAN_POINT('Origin',(104.45361584425,-4.93509425689826E-13,0.));
#494=CARTESIAN_POINT('',(104.45361584425,-10.3267561644326,-1.26466288823469E-15));
#495=CARTESIAN_POINT('Origin',(104.45361584425,-4.93509425689826E-13,0.));
#496=CARTESIAN_POINT('',(93.8828065991401,-10.7882879674444,-1.32118423276101E-15));
#497=CARTESIAN_POINT('Origin',(104.45361584425,-4.93509425689826E-13,0.));
#498=CARTESIAN_POINT('Origin',(104.409999979538,-4.93305309721267E-13,0.));
#499=CARTESIAN_POINT('',(105.409999979538,9.32770778905355,0.));
#500=CARTESIAN_POINT('',(105.409999979538,-4.9912748052488E-13,9.32770778905405));
#501=CARTESIAN_POINT('Origin',(105.409999979538,-4.97985165776155E-13,0.));
#502=CARTESIAN_POINT('Origin',(105.409999979538,-4.97985165776155E-13,0.));
#503=CARTESIAN_POINT('Origin',(104.409999979538,-4.94447624469991E-13,9.32770778905405));
#504=CARTESIAN_POINT('Origin',(105.409999979538,7.21602493509274,0.));
#505=CARTESIAN_POINT('',(105.409999979538,7.21602493509274,0.));
#506=CARTESIAN_POINT('',(105.409999979538,-4.98868873960088E-13,7.21602493509324));
#507=CARTESIAN_POINT('Origin',(105.409999979538,-4.97985165776155E-13,0.));
#508=CARTESIAN_POINT('Origin',(105.409999979538,-4.97985165776155E-13,0.));
#509=CARTESIAN_POINT('Origin',(104.909999979541,-4.95645237748726E-13,0.));
#510=CARTESIAN_POINT('',(105.159998019502,6.78301290398262,0.));
#511=CARTESIAN_POINT('',(105.159998019502,-4.9764587209389E-13,6.78301290398312));
#512=CARTESIAN_POINT('Origin',(105.159998019502,-4.96815192589746E-13,0.));
#513=CARTESIAN_POINT('',(105.159998019502,-6.78301290398362,-8.30679504143812E-16));
#514=CARTESIAN_POINT('Origin',(105.159998019502,-4.96815192589746E-13,0.));
#515=CARTESIAN_POINT('Origin',(105.159998019502,-4.96815192589746E-13,0.));
#516=CARTESIAN_POINT('Origin',(104.909999979541,-4.9652894615339E-13,7.21602673749871));
#517=CARTESIAN_POINT('Origin',(104.784999122188,-4.95060251729574E-13,0.));
#518=CARTESIAN_POINT('',(104.410000224874,-6.35000006085159,-7.77650724910679E-16));
#519=CARTESIAN_POINT('',(104.784999122188,-6.5665064824176,-8.04165114527245E-16));
#520=CARTESIAN_POINT('',(104.410000224874,6.3500000608506,0.));
#521=CARTESIAN_POINT('Origin',(104.410000224874,-4.93305310869402E-13,0.));
#522=CARTESIAN_POINT('Origin',(104.410000224874,-4.93305310869402E-13,0.));
#523=CARTESIAN_POINT('Origin',(91.9100009699319,-4.34807113670063E-13,0.));
#524=CARTESIAN_POINT('',(79.4100017149899,-6.35000006085141,-7.77650724910672E-16));
#525=CARTESIAN_POINT('',(91.9100009699318,-6.35000006085147,-7.77650724910672E-16));
#526=CARTESIAN_POINT('',(79.41000171499,6.3500000608506,0.));
#527=CARTESIAN_POINT('Origin',(79.4100017149899,-3.76308916470723E-13,0.));
#528=CARTESIAN_POINT('Origin',(79.4100017149899,-3.76308916470723E-13,0.));
#529=CARTESIAN_POINT('Origin',(79.3640390832875,-3.76093817970452E-13,0.));
#530=CARTESIAN_POINT('',(79.3180764515851,-6.50000027170278,-7.96020452719728E-16));
#531=CARTESIAN_POINT('',(79.3640390832875,-6.42500016627707,-7.86835588815196E-16));
#532=CARTESIAN_POINT('',(79.3180764515851,6.50000027170203,0.));
#533=CARTESIAN_POINT('Origin',(79.3180764515851,-3.75878719470181E-13,0.));
#534=CARTESIAN_POINT('Origin',(79.3180764515851,-3.75878719470181E-13,0.));
#535=CARTESIAN_POINT('Origin',(40.1590382892605,-1.92620057622624E-13,0.));
#536=CARTESIAN_POINT('',(1.0000001269359,-6.50000027170223,-7.96020452719705E-16));
#537=CARTESIAN_POINT('',(40.1590382892605,-6.50000027170242,-7.96020452719705E-16));
#538=CARTESIAN_POINT('',(1.00000012693596,6.50000027170203,0.));
#539=CARTESIAN_POINT('Origin',(1.00000012693593,-9.36139577506712E-15,0.));
#540=CARTESIAN_POINT('Origin',(1.00000012693593,-9.36139577506712E-15,0.));
#541=CARTESIAN_POINT('Origin',(0.625000109124383,-7.60644967112853E-15,
0.));
#542=CARTESIAN_POINT('',(0.250000091312805,-6.93301264917277,-8.49049174925754E-16));
#543=CARTESIAN_POINT('',(0.625000109124352,-6.71650646043741,-8.22534813822719E-16));
#544=CARTESIAN_POINT('',(0.250000091312837,-6.7005527421157E-15,6.93301264917277));
#545=CARTESIAN_POINT('Origin',(0.250000091312837,-5.85150356718995E-15,
0.));
#546=CARTESIAN_POINT('',(0.25000009131287,6.93301264917276,0.));
#547=CARTESIAN_POINT('Origin',(0.250000091312837,-5.85150356718995E-15,
0.));
#548=CARTESIAN_POINT('Origin',(0.250000091312837,-5.85150356718995E-15,
0.));
#549=CARTESIAN_POINT('Origin',(0.499999999999977,-7.02146715358098E-15,
0.));
#550=CARTESIAN_POINT('',(7.21644966006352E-15,7.36602540378448,0.));
#551=CARTESIAN_POINT('',(-2.72698530423554E-14,-5.58361706945508E-15,7.36602540378448));
#552=CARTESIAN_POINT('Origin',(-2.72698530423554E-14,-4.68153912613681E-15,
0.));
#553=CARTESIAN_POINT('Origin',(-2.72698530423554E-14,-4.68153912613681E-15,
0.));
#554=CARTESIAN_POINT('Origin',(0.499999999999977,-7.92354509689926E-15,
7.36602540378449));
#555=CARTESIAN_POINT('Origin',(1.11022302462516E-14,11.7,0.));
#556=CARTESIAN_POINT('',(1.11022302462516E-14,11.7,0.));
#557=CARTESIAN_POINT('',(-4.37150315946155E-14,-6.11437588113913E-15,11.7));
#558=CARTESIAN_POINT('Origin',(-4.36456426555765E-14,-4.68153912613673E-15,
0.));
#559=CARTESIAN_POINT('Origin',(-4.36456426555765E-14,-4.68153912613673E-15,
0.));
#560=CARTESIAN_POINT('Origin',(0.999999999999957,-9.36139518102504E-15,
0.));
#561=CARTESIAN_POINT('Origin',(0.999999999999957,-1.07942319360274E-14,
11.7));
#562=UNCERTAINTY_MEASURE_WITH_UNIT(LENGTH_MEASURE(0.01),#566,
'DISTANCE_ACCURACY_VALUE',
'Maximum model space distance between geometric entities at asserted c
onnectivities');
#563=UNCERTAINTY_MEASURE_WITH_UNIT(LENGTH_MEASURE(0.01),#566,
'DISTANCE_ACCURACY_VALUE',
'Maximum model space distance between geometric entities at asserted c
onnectivities');
#564=(
GEOMETRIC_REPRESENTATION_CONTEXT(3)
GLOBAL_UNCERTAINTY_ASSIGNED_CONTEXT((#562))
GLOBAL_UNIT_ASSIGNED_CONTEXT((#566,#569,#568))
REPRESENTATION_CONTEXT('','3D')
);
#565=(
GEOMETRIC_REPRESENTATION_CONTEXT(3)
GLOBAL_UNCERTAINTY_ASSIGNED_CONTEXT((#563))
GLOBAL_UNIT_ASSIGNED_CONTEXT((#566,#569,#568))
REPRESENTATION_CONTEXT('','3D')
);
#566=(
LENGTH_UNIT()
NAMED_UNIT(*)
SI_UNIT(.MILLI.,.METRE.)
);
#567=(
LENGTH_UNIT()
NAMED_UNIT(*)
SI_UNIT(.CENTI.,.METRE.)
);
#568=(
NAMED_UNIT(*)
SI_UNIT($,.STERADIAN.)
SOLID_ANGLE_UNIT()
);
#569=(
NAMED_UNIT(*)
PLANE_ANGLE_UNIT()
SI_UNIT($,.RADIAN.)
);
#570=SHAPE_DEFINITION_REPRESENTATION(#571,#572);
#571=PRODUCT_DEFINITION_SHAPE('',$,#574);
#572=SHAPE_REPRESENTATION('',(#310),#564);
#573=PRODUCT_DEFINITION_CONTEXT('part definition',#578,'design');
#574=PRODUCT_DEFINITION('S100-SD050-0415','S100-SD050-0415',#575,#573);
#575=PRODUCT_DEFINITION_FORMATION('',$,#580);
#576=PRODUCT_RELATED_PRODUCT_CATEGORY('S100-SD050-0415',
'S100-SD050-0415',(#580));
#577=APPLICATION_PROTOCOL_DEFINITION('international standard',
'automotive_design',2009,#578);
#578=APPLICATION_CONTEXT(
'Core Data for Automotive Mechanical Design Process');
#579=PRODUCT_CONTEXT('part definition',#578,'mechanical');
#580=PRODUCT('S100-SD050-0415','S100-SD050-0415',$,(#579));
#581=PRESENTATION_STYLE_ASSIGNMENT((#582));
#582=SURFACE_STYLE_USAGE(.BOTH.,#583);
#583=SURFACE_SIDE_STYLE('',(#584));
#584=SURFACE_STYLE_FILL_AREA(#585);
#585=FILL_AREA_STYLE('',(#586));
#586=FILL_AREA_STYLE_COLOUR('',#587);
#587=COLOUR_RGB('',0.749019607843137,0.749019607843137,0.749019607843137);
ENDSEC;
END-ISO-10303-21;
