ISO-10303-21;
HEADER;
/* Generated by software containing ST-Developer
 * from STEP Tools, Inc. (www.steptools.com) 
 */

FILE_DESCRIPTION(
/* description */ (''),
/* implementation_level */ '2;1');

FILE_NAME(
/* name */ 'C:\\Users\\Lee\\OneDrive\\Documents\\Models\\S100-SD037-08
00.stp',
/* time_stamp */ '2018-12-20T10:26:02-06:00',
/* author */ ('Lee'),
/* organization */ (''),
/* preprocessor_version */ 'ST-DEVELOPER v17',
/* originating_system */ 'Autodesk Inventor LT',
/* authorisation */ '');

FILE_SCHEMA (('AUTOMOTIVE_DESIGN { 1 0 10303 214 3 1 1 }'));
ENDSEC;

DATA;
#10=MECHANICAL_DESIGN_GEOMETRIC_PRESENTATION_REPRESENTATION('',(#13),#565);
#11=SHAPE_REPRESENTATION_RELATIONSHIP('SRR','None',#572,#12);
#12=ADVANCED_BREP_SHAPE_REPRESENTATION('',(#14),#564);
#13=STYLED_ITEM('',(#581),#14);
#14=MANIFOLD_SOLID_BREP('Solid1',#291);
#15=CYLINDRICAL_SURFACE('',#329,12.7);
#16=CYLINDRICAL_SURFACE('',#354,4.76250003160701);
#17=CYLINDRICAL_SURFACE('',#360,4.99999986098872);
#18=FACE_BOUND('',#43,.T.);
#19=FACE_BOUND('',#50,.T.);
#20=PLANE('',#321);
#21=PLANE('',#343);
#22=TOROIDAL_SURFACE('',#317,5.86602540378443,0.500000000000004);
#23=TOROIDAL_SURFACE('',#324,11.7,1.);
#24=TOROIDAL_SURFACE('',#339,6.79803618973598,1.00000000000001);
#25=TOROIDAL_SURFACE('',#346,5.62852540386328,0.500000000000004);
#26=FACE_OUTER_BOUND('',#40,.T.);
#27=FACE_OUTER_BOUND('',#41,.T.);
#28=FACE_OUTER_BOUND('',#42,.T.);
#29=FACE_OUTER_BOUND('',#44,.T.);
#30=FACE_OUTER_BOUND('',#45,.T.);
#31=FACE_OUTER_BOUND('',#46,.T.);
#32=FACE_OUTER_BOUND('',#47,.T.);
#33=FACE_OUTER_BOUND('',#48,.T.);
#34=FACE_OUTER_BOUND('',#49,.T.);
#35=FACE_OUTER_BOUND('',#51,.T.);
#36=FACE_OUTER_BOUND('',#52,.T.);
#37=FACE_OUTER_BOUND('',#53,.T.);
#38=FACE_OUTER_BOUND('',#54,.T.);
#39=FACE_OUTER_BOUND('',#55,.T.);
#40=EDGE_LOOP('',(#184,#185,#186,#187,#188,#189,#190));
#41=EDGE_LOOP('',(#191,#192,#193,#194,#195,#196,#197));
#42=EDGE_LOOP('',(#198,#199));
#43=EDGE_LOOP('',(#200,#201));
#44=EDGE_LOOP('',(#202,#203,#204,#205,#206,#207,#208));
#45=EDGE_LOOP('',(#209,#210,#211,#212,#213,#214,#215));
#46=EDGE_LOOP('',(#216,#217,#218,#219,#220,#221));
#47=EDGE_LOOP('',(#222,#223,#224,#225,#226,#227,#228));
#48=EDGE_LOOP('',(#229,#230,#231,#232,#233,#234,#235));
#49=EDGE_LOOP('',(#236,#237));
#50=EDGE_LOOP('',(#238,#239));
#51=EDGE_LOOP('',(#240,#241,#242,#243,#244,#245,#246));
#52=EDGE_LOOP('',(#247,#248,#249,#250,#251,#252,#253));
#53=EDGE_LOOP('',(#254,#255,#256,#257,#258,#259));
#54=EDGE_LOOP('',(#260,#261,#262,#263,#264,#265));
#55=EDGE_LOOP('',(#266,#267,#268,#269,#270,#271));
#56=LINE('',#477,#64);
#57=LINE('',#508,#65);
#58=LINE('',#514,#66);
#59=LINE('',#521,#67);
#60=LINE('',#544,#68);
#61=LINE('',#550,#69);
#62=LINE('',#556,#70);
#63=LINE('',#561,#71);
#64=VECTOR('',#367,5.21650628255473);
#65=VECTOR('',#406,12.7);
#66=VECTOR('',#413,11.3217049881816);
#67=VECTOR('',#420,8.87003765888511);
#68=VECTOR('',#449,4.97900635312333);
#69=VECTOR('',#456,4.76250003160701);
#70=VECTOR('',#463,4.88124994629786);
#71=VECTOR('',#470,4.99999986098872);
#72=CIRCLE('',#312,4.99999986098872);
#73=CIRCLE('',#313,5.43301270412074);
#74=CIRCLE('',#314,5.43301270412074);
#75=CIRCLE('',#315,5.43301270412074);
#76=CIRCLE('',#316,4.99999986098872);
#77=CIRCLE('',#318,5.86602540378443);
#78=CIRCLE('',#319,5.86602540378443);
#79=CIRCLE('',#320,0.500000000000004);
#80=CIRCLE('',#322,11.7);
#81=CIRCLE('',#323,11.7);
#82=CIRCLE('',#325,12.7);
#83=CIRCLE('',#326,12.7);
#84=CIRCLE('',#327,12.7);
#85=CIRCLE('',#328,1.);
#86=CIRCLE('',#330,12.7);
#87=CIRCLE('',#331,12.7);
#88=CIRCLE('',#333,9.94340997636317);
#89=CIRCLE('',#334,9.94340997636317);
#90=CIRCLE('',#336,7.79666534140705);
#91=CIRCLE('',#337,7.79666534140705);
#92=CIRCLE('',#338,7.79666534140705);
#93=CIRCLE('',#340,6.79803622163182);
#94=CIRCLE('',#341,6.79803622163182);
#95=CIRCLE('',#342,1.00000000000001);
#96=CIRCLE('',#344,5.62852603591329);
#97=CIRCLE('',#345,5.62852603591329);
#98=CIRCLE('',#347,5.19551267463964);
#99=CIRCLE('',#348,5.19551267463964);
#100=CIRCLE('',#349,5.19551267463964);
#101=CIRCLE('',#350,0.500000000000004);
#102=CIRCLE('',#352,4.76250003160701);
#103=CIRCLE('',#353,4.76250003160701);
#104=CIRCLE('',#355,4.76250003160701);
#105=CIRCLE('',#356,4.76250003160701);
#106=CIRCLE('',#358,4.99999986098872);
#107=CIRCLE('',#359,4.99999986098872);
#108=VERTEX_POINT('',#473);
#109=VERTEX_POINT('',#474);
#110=VERTEX_POINT('',#476);
#111=VERTEX_POINT('',#478);
#112=VERTEX_POINT('',#480);
#113=VERTEX_POINT('',#485);
#114=VERTEX_POINT('',#486);
#115=VERTEX_POINT('',#491);
#116=VERTEX_POINT('',#492);
#117=VERTEX_POINT('',#496);
#118=VERTEX_POINT('',#497);
#119=VERTEX_POINT('',#499);
#120=VERTEX_POINT('',#504);
#121=VERTEX_POINT('',#505);
#122=VERTEX_POINT('',#510);
#123=VERTEX_POINT('',#511);
#124=VERTEX_POINT('',#516);
#125=VERTEX_POINT('',#517);
#126=VERTEX_POINT('',#519);
#127=VERTEX_POINT('',#524);
#128=VERTEX_POINT('',#525);
#129=VERTEX_POINT('',#530);
#130=VERTEX_POINT('',#531);
#131=VERTEX_POINT('',#535);
#132=VERTEX_POINT('',#536);
#133=VERTEX_POINT('',#538);
#134=VERTEX_POINT('',#543);
#135=VERTEX_POINT('',#545);
#136=VERTEX_POINT('',#549);
#137=VERTEX_POINT('',#551);
#138=VERTEX_POINT('',#555);
#139=VERTEX_POINT('',#557);
#140=EDGE_CURVE('',#108,#109,#72,.T.);
#141=EDGE_CURVE('',#109,#110,#56,.T.);
#142=EDGE_CURVE('',#111,#110,#73,.T.);
#143=EDGE_CURVE('',#112,#111,#74,.T.);
#144=EDGE_CURVE('',#110,#112,#75,.T.);
#145=EDGE_CURVE('',#109,#108,#76,.T.);
#146=EDGE_CURVE('',#113,#114,#77,.T.);
#147=EDGE_CURVE('',#114,#113,#78,.T.);
#148=EDGE_CURVE('',#114,#111,#79,.T.);
#149=EDGE_CURVE('',#115,#116,#80,.T.);
#150=EDGE_CURVE('',#116,#115,#81,.T.);
#151=EDGE_CURVE('',#117,#118,#82,.T.);
#152=EDGE_CURVE('',#119,#117,#83,.T.);
#153=EDGE_CURVE('',#118,#119,#84,.T.);
#154=EDGE_CURVE('',#118,#116,#85,.T.);
#155=EDGE_CURVE('',#120,#121,#86,.T.);
#156=EDGE_CURVE('',#121,#120,#87,.T.);
#157=EDGE_CURVE('',#121,#119,#57,.T.);
#158=EDGE_CURVE('',#122,#123,#88,.T.);
#159=EDGE_CURVE('',#123,#122,#89,.T.);
#160=EDGE_CURVE('',#123,#121,#58,.T.);
#161=EDGE_CURVE('',#124,#125,#90,.T.);
#162=EDGE_CURVE('',#126,#124,#91,.T.);
#163=EDGE_CURVE('',#126,#123,#59,.T.);
#164=EDGE_CURVE('',#125,#126,#92,.T.);
#165=EDGE_CURVE('',#127,#128,#93,.T.);
#166=EDGE_CURVE('',#128,#127,#94,.T.);
#167=EDGE_CURVE('',#128,#125,#95,.T.);
#168=EDGE_CURVE('',#129,#130,#96,.T.);
#169=EDGE_CURVE('',#130,#129,#97,.T.);
#170=EDGE_CURVE('',#131,#132,#98,.T.);
#171=EDGE_CURVE('',#133,#131,#99,.T.);
#172=EDGE_CURVE('',#132,#133,#100,.T.);
#173=EDGE_CURVE('',#132,#130,#101,.T.);
#174=EDGE_CURVE('',#133,#134,#60,.T.);
#175=EDGE_CURVE('',#135,#134,#102,.T.);
#176=EDGE_CURVE('',#134,#135,#103,.T.);
#177=EDGE_CURVE('',#134,#136,#61,.T.);
#178=EDGE_CURVE('',#137,#136,#104,.T.);
#179=EDGE_CURVE('',#136,#137,#105,.T.);
#180=EDGE_CURVE('',#136,#138,#62,.T.);
#181=EDGE_CURVE('',#139,#138,#106,.T.);
#182=EDGE_CURVE('',#138,#139,#107,.T.);
#183=EDGE_CURVE('',#138,#109,#63,.T.);
#184=ORIENTED_EDGE('',*,*,#140,.T.);
#185=ORIENTED_EDGE('',*,*,#141,.T.);
#186=ORIENTED_EDGE('',*,*,#142,.F.);
#187=ORIENTED_EDGE('',*,*,#143,.F.);
#188=ORIENTED_EDGE('',*,*,#144,.F.);
#189=ORIENTED_EDGE('',*,*,#141,.F.);
#190=ORIENTED_EDGE('',*,*,#145,.T.);
#191=ORIENTED_EDGE('',*,*,#146,.F.);
#192=ORIENTED_EDGE('',*,*,#147,.F.);
#193=ORIENTED_EDGE('',*,*,#148,.T.);
#194=ORIENTED_EDGE('',*,*,#142,.T.);
#195=ORIENTED_EDGE('',*,*,#144,.T.);
#196=ORIENTED_EDGE('',*,*,#143,.T.);
#197=ORIENTED_EDGE('',*,*,#148,.F.);
#198=ORIENTED_EDGE('',*,*,#149,.F.);
#199=ORIENTED_EDGE('',*,*,#150,.F.);
#200=ORIENTED_EDGE('',*,*,#146,.T.);
#201=ORIENTED_EDGE('',*,*,#147,.T.);
#202=ORIENTED_EDGE('',*,*,#151,.F.);
#203=ORIENTED_EDGE('',*,*,#152,.F.);
#204=ORIENTED_EDGE('',*,*,#153,.F.);
#205=ORIENTED_EDGE('',*,*,#154,.T.);
#206=ORIENTED_EDGE('',*,*,#150,.T.);
#207=ORIENTED_EDGE('',*,*,#149,.T.);
#208=ORIENTED_EDGE('',*,*,#154,.F.);
#209=ORIENTED_EDGE('',*,*,#155,.F.);
#210=ORIENTED_EDGE('',*,*,#156,.F.);
#211=ORIENTED_EDGE('',*,*,#157,.T.);
#212=ORIENTED_EDGE('',*,*,#152,.T.);
#213=ORIENTED_EDGE('',*,*,#151,.T.);
#214=ORIENTED_EDGE('',*,*,#153,.T.);
#215=ORIENTED_EDGE('',*,*,#157,.F.);
#216=ORIENTED_EDGE('',*,*,#158,.F.);
#217=ORIENTED_EDGE('',*,*,#159,.F.);
#218=ORIENTED_EDGE('',*,*,#160,.T.);
#219=ORIENTED_EDGE('',*,*,#156,.T.);
#220=ORIENTED_EDGE('',*,*,#155,.T.);
#221=ORIENTED_EDGE('',*,*,#160,.F.);
#222=ORIENTED_EDGE('',*,*,#161,.F.);
#223=ORIENTED_EDGE('',*,*,#162,.F.);
#224=ORIENTED_EDGE('',*,*,#163,.T.);
#225=ORIENTED_EDGE('',*,*,#159,.T.);
#226=ORIENTED_EDGE('',*,*,#158,.T.);
#227=ORIENTED_EDGE('',*,*,#163,.F.);
#228=ORIENTED_EDGE('',*,*,#164,.F.);
#229=ORIENTED_EDGE('',*,*,#165,.F.);
#230=ORIENTED_EDGE('',*,*,#166,.F.);
#231=ORIENTED_EDGE('',*,*,#167,.T.);
#232=ORIENTED_EDGE('',*,*,#164,.T.);
#233=ORIENTED_EDGE('',*,*,#162,.T.);
#234=ORIENTED_EDGE('',*,*,#161,.T.);
#235=ORIENTED_EDGE('',*,*,#167,.F.);
#236=ORIENTED_EDGE('',*,*,#165,.T.);
#237=ORIENTED_EDGE('',*,*,#166,.T.);
#238=ORIENTED_EDGE('',*,*,#168,.F.);
#239=ORIENTED_EDGE('',*,*,#169,.F.);
#240=ORIENTED_EDGE('',*,*,#170,.F.);
#241=ORIENTED_EDGE('',*,*,#171,.F.);
#242=ORIENTED_EDGE('',*,*,#172,.F.);
#243=ORIENTED_EDGE('',*,*,#173,.T.);
#244=ORIENTED_EDGE('',*,*,#169,.T.);
#245=ORIENTED_EDGE('',*,*,#168,.T.);
#246=ORIENTED_EDGE('',*,*,#173,.F.);
#247=ORIENTED_EDGE('',*,*,#170,.T.);
#248=ORIENTED_EDGE('',*,*,#172,.T.);
#249=ORIENTED_EDGE('',*,*,#174,.T.);
#250=ORIENTED_EDGE('',*,*,#175,.F.);
#251=ORIENTED_EDGE('',*,*,#176,.F.);
#252=ORIENTED_EDGE('',*,*,#174,.F.);
#253=ORIENTED_EDGE('',*,*,#171,.T.);
#254=ORIENTED_EDGE('',*,*,#175,.T.);
#255=ORIENTED_EDGE('',*,*,#177,.T.);
#256=ORIENTED_EDGE('',*,*,#178,.F.);
#257=ORIENTED_EDGE('',*,*,#179,.F.);
#258=ORIENTED_EDGE('',*,*,#177,.F.);
#259=ORIENTED_EDGE('',*,*,#176,.T.);
#260=ORIENTED_EDGE('',*,*,#178,.T.);
#261=ORIENTED_EDGE('',*,*,#180,.T.);
#262=ORIENTED_EDGE('',*,*,#181,.F.);
#263=ORIENTED_EDGE('',*,*,#182,.F.);
#264=ORIENTED_EDGE('',*,*,#180,.F.);
#265=ORIENTED_EDGE('',*,*,#179,.T.);
#266=ORIENTED_EDGE('',*,*,#181,.T.);
#267=ORIENTED_EDGE('',*,*,#183,.T.);
#268=ORIENTED_EDGE('',*,*,#140,.F.);
#269=ORIENTED_EDGE('',*,*,#145,.F.);
#270=ORIENTED_EDGE('',*,*,#183,.F.);
#271=ORIENTED_EDGE('',*,*,#182,.T.);
#272=CONICAL_SURFACE('',#311,5.21650628255473,0.523598896271094);
#273=CONICAL_SURFACE('',#332,11.3217049881816,0.205948843467091);
#274=CONICAL_SURFACE('',#335,8.87003765888511,0.0523598639913938);
#275=CONICAL_SURFACE('',#351,4.97900635312333,0.523596128911113);
#276=CONICAL_SURFACE('',#357,4.88124994629786,1.02101896309298);
#277=ADVANCED_FACE('',(#26),#272,.F.);
#278=ADVANCED_FACE('',(#27),#22,.T.);
#279=ADVANCED_FACE('',(#28,#18),#20,.T.);
#280=ADVANCED_FACE('',(#29),#23,.T.);
#281=ADVANCED_FACE('',(#30),#15,.T.);
#282=ADVANCED_FACE('',(#31),#273,.T.);
#283=ADVANCED_FACE('',(#32),#274,.T.);
#284=ADVANCED_FACE('',(#33),#24,.T.);
#285=ADVANCED_FACE('',(#34,#19),#21,.T.);
#286=ADVANCED_FACE('',(#35),#25,.T.);
#287=ADVANCED_FACE('',(#36),#275,.F.);
#288=ADVANCED_FACE('',(#37),#16,.F.);
#289=ADVANCED_FACE('',(#38),#276,.F.);
#290=ADVANCED_FACE('',(#39),#17,.F.);
#291=CLOSED_SHELL('',(#277,#278,#279,#280,#281,#282,#283,#284,#285,#286,
#287,#288,#289,#290));
#292=DERIVED_UNIT_ELEMENT(#294,1.);
#293=DERIVED_UNIT_ELEMENT(#567,3.);
#294=(
MASS_UNIT()
NAMED_UNIT(*)
SI_UNIT($,.GRAM.)
);
#295=DERIVED_UNIT((#292,#293));
#296=MEASURE_REPRESENTATION_ITEM('density measure',
POSITIVE_RATIO_MEASURE(1.),#295);
#297=PROPERTY_DEFINITION_REPRESENTATION(#302,#299);
#298=PROPERTY_DEFINITION_REPRESENTATION(#303,#300);
#299=REPRESENTATION('material name',(#301),#564);
#300=REPRESENTATION('density',(#296),#564);
#301=DESCRIPTIVE_REPRESENTATION_ITEM('Generic','Generic');
#302=PROPERTY_DEFINITION('material property','material name',#574);
#303=PROPERTY_DEFINITION('material property','density of part',#574);
#304=DATE_TIME_ROLE('creation_date');
#305=APPLIED_DATE_AND_TIME_ASSIGNMENT(#306,#304,(#574));
#306=DATE_AND_TIME(#307,#308);
#307=CALENDAR_DATE(2018,20,12);
#308=LOCAL_TIME(10,23,17.,#309);
#309=COORDINATED_UNIVERSAL_TIME_OFFSET(0,0,.BEHIND.);
#310=AXIS2_PLACEMENT_3D('placement',#471,#361,#362);
#311=AXIS2_PLACEMENT_3D('',#472,#363,#364);
#312=AXIS2_PLACEMENT_3D('',#475,#365,#366);
#313=AXIS2_PLACEMENT_3D('',#479,#368,#369);
#314=AXIS2_PLACEMENT_3D('',#481,#370,#371);
#315=AXIS2_PLACEMENT_3D('',#482,#372,#373);
#316=AXIS2_PLACEMENT_3D('',#483,#374,#375);
#317=AXIS2_PLACEMENT_3D('',#484,#376,#377);
#318=AXIS2_PLACEMENT_3D('',#487,#378,#379);
#319=AXIS2_PLACEMENT_3D('',#488,#380,#381);
#320=AXIS2_PLACEMENT_3D('',#489,#382,#383);
#321=AXIS2_PLACEMENT_3D('',#490,#384,#385);
#322=AXIS2_PLACEMENT_3D('',#493,#386,#387);
#323=AXIS2_PLACEMENT_3D('',#494,#388,#389);
#324=AXIS2_PLACEMENT_3D('',#495,#390,#391);
#325=AXIS2_PLACEMENT_3D('',#498,#392,#393);
#326=AXIS2_PLACEMENT_3D('',#500,#394,#395);
#327=AXIS2_PLACEMENT_3D('',#501,#396,#397);
#328=AXIS2_PLACEMENT_3D('',#502,#398,#399);
#329=AXIS2_PLACEMENT_3D('',#503,#400,#401);
#330=AXIS2_PLACEMENT_3D('',#506,#402,#403);
#331=AXIS2_PLACEMENT_3D('',#507,#404,#405);
#332=AXIS2_PLACEMENT_3D('',#509,#407,#408);
#333=AXIS2_PLACEMENT_3D('',#512,#409,#410);
#334=AXIS2_PLACEMENT_3D('',#513,#411,#412);
#335=AXIS2_PLACEMENT_3D('',#515,#414,#415);
#336=AXIS2_PLACEMENT_3D('',#518,#416,#417);
#337=AXIS2_PLACEMENT_3D('',#520,#418,#419);
#338=AXIS2_PLACEMENT_3D('',#522,#421,#422);
#339=AXIS2_PLACEMENT_3D('',#523,#423,#424);
#340=AXIS2_PLACEMENT_3D('',#526,#425,#426);
#341=AXIS2_PLACEMENT_3D('',#527,#427,#428);
#342=AXIS2_PLACEMENT_3D('',#528,#429,#430);
#343=AXIS2_PLACEMENT_3D('',#529,#431,#432);
#344=AXIS2_PLACEMENT_3D('',#532,#433,#434);
#345=AXIS2_PLACEMENT_3D('',#533,#435,#436);
#346=AXIS2_PLACEMENT_3D('',#534,#437,#438);
#347=AXIS2_PLACEMENT_3D('',#537,#439,#440);
#348=AXIS2_PLACEMENT_3D('',#539,#441,#442);
#349=AXIS2_PLACEMENT_3D('',#540,#443,#444);
#350=AXIS2_PLACEMENT_3D('',#541,#445,#446);
#351=AXIS2_PLACEMENT_3D('',#542,#447,#448);
#352=AXIS2_PLACEMENT_3D('',#546,#450,#451);
#353=AXIS2_PLACEMENT_3D('',#547,#452,#453);
#354=AXIS2_PLACEMENT_3D('',#548,#454,#455);
#355=AXIS2_PLACEMENT_3D('',#552,#457,#458);
#356=AXIS2_PLACEMENT_3D('',#553,#459,#460);
#357=AXIS2_PLACEMENT_3D('',#554,#461,#462);
#358=AXIS2_PLACEMENT_3D('',#558,#464,#465);
#359=AXIS2_PLACEMENT_3D('',#559,#466,#467);
#360=AXIS2_PLACEMENT_3D('',#560,#468,#469);
#361=DIRECTION('axis',(0.,0.,1.));
#362=DIRECTION('refdir',(1.,0.,0.));
#363=DIRECTION('center_axis',(-1.,0.,0.));
#364=DIRECTION('ref_axis',(0.,1.,0.));
#365=DIRECTION('center_axis',(1.,0.,0.));
#366=DIRECTION('ref_axis',(0.,0.,-1.));
#367=DIRECTION('',(-0.866025343448035,-0.500000104505702,-6.1232352755625E-17));
#368=DIRECTION('center_axis',(1.,0.,0.));
#369=DIRECTION('ref_axis',(0.,0.,-1.));
#370=DIRECTION('center_axis',(1.,0.,0.));
#371=DIRECTION('ref_axis',(0.,0.,-1.));
#372=DIRECTION('center_axis',(1.,0.,0.));
#373=DIRECTION('ref_axis',(0.,0.,-1.));
#374=DIRECTION('center_axis',(1.,0.,0.));
#375=DIRECTION('ref_axis',(0.,0.,-1.));
#376=DIRECTION('center_axis',(1.,0.,0.));
#377=DIRECTION('ref_axis',(0.,0.,-1.));
#378=DIRECTION('center_axis',(1.,0.,0.));
#379=DIRECTION('ref_axis',(0.,0.,-1.));
#380=DIRECTION('center_axis',(1.,0.,0.));
#381=DIRECTION('ref_axis',(0.,0.,-1.));
#382=DIRECTION('center_axis',(0.,-1.,-1.22464679914735E-16));
#383=DIRECTION('ref_axis',(0.,-1.22464679914735E-16,1.));
#384=DIRECTION('center_axis',(-1.,0.,0.));
#385=DIRECTION('ref_axis',(0.,0.,1.));
#386=DIRECTION('center_axis',(1.,0.,0.));
#387=DIRECTION('ref_axis',(0.,0.,-1.));
#388=DIRECTION('center_axis',(1.,0.,0.));
#389=DIRECTION('ref_axis',(0.,0.,-1.));
#390=DIRECTION('center_axis',(1.,0.,0.));
#391=DIRECTION('ref_axis',(0.,0.,-1.));
#392=DIRECTION('center_axis',(1.,0.,0.));
#393=DIRECTION('ref_axis',(0.,0.,-1.));
#394=DIRECTION('center_axis',(1.,0.,0.));
#395=DIRECTION('ref_axis',(0.,0.,-1.));
#396=DIRECTION('center_axis',(1.,0.,0.));
#397=DIRECTION('ref_axis',(0.,0.,-1.));
#398=DIRECTION('center_axis',(0.,-1.,-1.22464679914735E-16));
#399=DIRECTION('ref_axis',(0.,-1.22464679914735E-16,1.));
#400=DIRECTION('center_axis',(1.,0.,0.));
#401=DIRECTION('ref_axis',(0.,1.,0.));
#402=DIRECTION('center_axis',(1.,0.,0.));
#403=DIRECTION('ref_axis',(0.,0.,-1.));
#404=DIRECTION('center_axis',(1.,0.,0.));
#405=DIRECTION('ref_axis',(0.,0.,-1.));
#406=DIRECTION('',(-1.,0.,0.));
#407=DIRECTION('center_axis',(-1.,0.,0.));
#408=DIRECTION('ref_axis',(0.,1.,0.));
#409=DIRECTION('center_axis',(1.,0.,0.));
#410=DIRECTION('ref_axis',(0.,0.,-1.));
#411=DIRECTION('center_axis',(1.,0.,0.));
#412=DIRECTION('ref_axis',(0.,0.,-1.));
#413=DIRECTION('',(-0.978867390452507,-0.20449604374828,-2.50435425414628E-17));
#414=DIRECTION('center_axis',(-1.,0.,0.));
#415=DIRECTION('ref_axis',(0.,1.,0.));
#416=DIRECTION('center_axis',(1.,0.,0.));
#417=DIRECTION('ref_axis',(0.,0.,-1.));
#418=DIRECTION('center_axis',(1.,0.,0.));
#419=DIRECTION('ref_axis',(0.,0.,-1.));
#420=DIRECTION('',(-0.998629535464691,-0.0523359426931028,-6.40930446994677E-18));
#421=DIRECTION('center_axis',(1.,0.,0.));
#422=DIRECTION('ref_axis',(0.,0.,-1.));
#423=DIRECTION('center_axis',(1.,0.,0.));
#424=DIRECTION('ref_axis',(0.,0.,-1.));
#425=DIRECTION('center_axis',(1.,0.,0.));
#426=DIRECTION('ref_axis',(0.,0.,-1.));
#427=DIRECTION('center_axis',(1.,0.,0.));
#428=DIRECTION('ref_axis',(0.,0.,-1.));
#429=DIRECTION('center_axis',(0.,-1.,-1.22464679914735E-16));
#430=DIRECTION('ref_axis',(0.,-1.22464679914735E-16,1.));
#431=DIRECTION('center_axis',(1.,0.,0.));
#432=DIRECTION('ref_axis',(0.,0.,-1.));
#433=DIRECTION('center_axis',(1.,0.,0.));
#434=DIRECTION('ref_axis',(0.,0.,-1.));
#435=DIRECTION('center_axis',(1.,0.,0.));
#436=DIRECTION('ref_axis',(0.,0.,-1.));
#437=DIRECTION('center_axis',(1.,0.,0.));
#438=DIRECTION('ref_axis',(0.,0.,-1.));
#439=DIRECTION('center_axis',(1.,0.,0.));
#440=DIRECTION('ref_axis',(0.,0.,-1.));
#441=DIRECTION('center_axis',(1.,0.,0.));
#442=DIRECTION('ref_axis',(0.,0.,-1.));
#443=DIRECTION('center_axis',(1.,0.,0.));
#444=DIRECTION('ref_axis',(0.,0.,-1.));
#445=DIRECTION('center_axis',(0.,-1.,-1.22464679914735E-16));
#446=DIRECTION('ref_axis',(0.,-1.22464679914735E-16,1.));
#447=DIRECTION('center_axis',(1.,0.,0.));
#448=DIRECTION('ref_axis',(0.,1.,0.));
#449=DIRECTION('',(-0.866026727124998,0.49999770789991,6.12320592560638E-17));
#450=DIRECTION('center_axis',(1.,0.,0.));
#451=DIRECTION('ref_axis',(0.,0.,-1.));
#452=DIRECTION('center_axis',(1.,0.,0.));
#453=DIRECTION('ref_axis',(0.,0.,-1.));
#454=DIRECTION('center_axis',(1.,0.,0.));
#455=DIRECTION('ref_axis',(0.,1.,0.));
#456=DIRECTION('',(-1.,0.,0.));
#457=DIRECTION('center_axis',(1.,0.,0.));
#458=DIRECTION('ref_axis',(0.,0.,-1.));
#459=DIRECTION('center_axis',(1.,0.,0.));
#460=DIRECTION('ref_axis',(0.,0.,-1.));
#461=DIRECTION('center_axis',(-1.,0.,0.));
#462=DIRECTION('ref_axis',(0.,1.,0.));
#463=DIRECTION('',(-0.522497413074609,-0.852640870079743,-1.04418391236537E-16));
#464=DIRECTION('center_axis',(1.,0.,0.));
#465=DIRECTION('ref_axis',(0.,0.,-1.));
#466=DIRECTION('center_axis',(1.,0.,0.));
#467=DIRECTION('ref_axis',(0.,0.,-1.));
#468=DIRECTION('center_axis',(1.,0.,0.));
#469=DIRECTION('ref_axis',(0.,1.,0.));
#470=DIRECTION('',(-1.,0.,0.));
#471=CARTESIAN_POINT('',(0.,0.,0.));
#472=CARTESIAN_POINT('Origin',(0.625000013951631,0.,0.));
#473=CARTESIAN_POINT('',(1.00000003176316,4.99999986098872,0.));
#474=CARTESIAN_POINT('',(1.00000003176316,-4.99999986098872,-6.12323382549705E-16));
#475=CARTESIAN_POINT('Origin',(1.00000003176316,0.,0.));
#476=CARTESIAN_POINT('',(0.249999996140088,-5.43301270412074,-6.65352161782837E-16));
#477=CARTESIAN_POINT('',(0.625000013951631,-5.21650628255473,-6.3883777216627E-16));
#478=CARTESIAN_POINT('',(0.249999996140087,-6.65352161782837E-16,5.43301270412074));
#479=CARTESIAN_POINT('Origin',(0.249999996140087,0.,0.));
#480=CARTESIAN_POINT('',(0.249999996140089,5.43301270412074,0.));
#481=CARTESIAN_POINT('Origin',(0.249999996140087,0.,0.));
#482=CARTESIAN_POINT('Origin',(0.249999996140087,0.,0.));
#483=CARTESIAN_POINT('Origin',(1.00000003176316,0.,0.));
#484=CARTESIAN_POINT('Origin',(0.500000000000007,0.,0.));
#485=CARTESIAN_POINT('',(5.27355936696949E-15,5.86602540378443,0.));
#486=CARTESIAN_POINT('',(0.,-7.18380923446167E-16,5.86602540378443));
#487=CARTESIAN_POINT('Origin',(0.,0.,0.));
#488=CARTESIAN_POINT('Origin',(0.,0.,0.));
#489=CARTESIAN_POINT('Origin',(0.500000000000007,-7.18380923446167E-16,
5.86602540378443));
#490=CARTESIAN_POINT('Origin',(8.04911692853238E-15,11.7,0.));
#491=CARTESIAN_POINT('',(8.04911692853238E-15,11.7,0.));
#492=CARTESIAN_POINT('',(0.,-1.4328367550024E-15,11.7));
#493=CARTESIAN_POINT('Origin',(0.,0.,0.));
#494=CARTESIAN_POINT('Origin',(0.,0.,0.));
#495=CARTESIAN_POINT('Origin',(1.00000000000001,0.,0.));
#496=CARTESIAN_POINT('',(1.00000004749745,12.7,0.));
#497=CARTESIAN_POINT('',(1.00000004749745,-1.55530143491714E-15,12.7));
#498=CARTESIAN_POINT('Origin',(1.00000004749745,0.,0.));
#499=CARTESIAN_POINT('',(1.00000004749745,-12.7,-1.55530143491714E-15));
#500=CARTESIAN_POINT('Origin',(1.00000004749745,0.,0.));
#501=CARTESIAN_POINT('Origin',(1.00000004749745,0.,0.));
#502=CARTESIAN_POINT('Origin',(1.00000000000001,-1.4328367550024E-15,11.7));
#503=CARTESIAN_POINT('Origin',(74.5474760769867,0.,0.));
#504=CARTESIAN_POINT('',(148.094952106476,12.7,0.));
#505=CARTESIAN_POINT('',(148.094952106476,-12.7,-1.55530143491714E-15));
#506=CARTESIAN_POINT('Origin',(148.094952106476,0.,0.));
#507=CARTESIAN_POINT('Origin',(148.094952106476,0.,0.));
#508=CARTESIAN_POINT('',(74.5474760769867,-12.7,-1.55530143491714E-15));
#509=CARTESIAN_POINT('Origin',(154.692478477955,0.,0.));
#510=CARTESIAN_POINT('',(161.290004849434,9.94340997636317,0.));
#511=CARTESIAN_POINT('',(161.290004849434,-9.94340997636317,-1.2177165200163E-15));
#512=CARTESIAN_POINT('Origin',(161.290004849434,0.,0.));
#513=CARTESIAN_POINT('Origin',(161.290004849434,0.,0.));
#514=CARTESIAN_POINT('',(154.692478477955,-11.3217049881816,-1.38650897746672E-15));
#515=CARTESIAN_POINT('Origin',(181.771174073219,0.,0.));
#516=CARTESIAN_POINT('',(202.252343297005,7.79666534140705,0.));
#517=CARTESIAN_POINT('',(202.252343297005,-9.54816125437725E-16,7.79666534140705));
#518=CARTESIAN_POINT('Origin',(202.252343297005,0.,0.));
#519=CARTESIAN_POINT('',(202.252343297005,-7.79666534140705,-9.54816125437725E-16));
#520=CARTESIAN_POINT('Origin',(202.252343297005,0.,0.));
#521=CARTESIAN_POINT('',(181.771174073219,-8.87003765888511,-1.08626632272701E-15));
#522=CARTESIAN_POINT('Origin',(202.252343297005,0.,0.));
#523=CARTESIAN_POINT('Origin',(202.200000031605,0.,0.));
#524=CARTESIAN_POINT('',(203.200000031605,6.79803622163182,0.));
#525=CARTESIAN_POINT('',(203.200000031605,-8.32519329930918E-16,6.79803622163182));
#526=CARTESIAN_POINT('Origin',(203.200000031605,0.,0.));
#527=CARTESIAN_POINT('Origin',(203.200000031605,0.,0.));
#528=CARTESIAN_POINT('Origin',(202.200000031605,-8.32519326024803E-16,6.79803618973598));
#529=CARTESIAN_POINT('Origin',(203.200000031605,5.62852603591329,0.));
#530=CARTESIAN_POINT('',(203.200000031605,5.62852603591329,0.));
#531=CARTESIAN_POINT('',(203.200000031605,-6.89295639379875E-16,5.62852603591329));
#532=CARTESIAN_POINT('Origin',(203.200000031605,0.,0.));
#533=CARTESIAN_POINT('Origin',(203.200000031605,0.,0.));
#534=CARTESIAN_POINT('Origin',(202.700000031605,0.,0.));
#535=CARTESIAN_POINT('',(202.949999984266,5.19551267463964,0.));
#536=CARTESIAN_POINT('',(202.949999984266,-6.36266796692694E-16,5.19551267463964));
#537=CARTESIAN_POINT('Origin',(202.949999984266,0.,0.));
#538=CARTESIAN_POINT('',(202.949999984266,-5.19551267463965,-6.36266796692695E-16));
#539=CARTESIAN_POINT('Origin',(202.949999984266,0.,0.));
#540=CARTESIAN_POINT('Origin',(202.949999984266,0.,0.));
#541=CARTESIAN_POINT('Origin',(202.700000031605,-6.89295561976073E-16,5.62852540386328));
#542=CARTESIAN_POINT('Origin',(202.574997743131,0.,0.));
#543=CARTESIAN_POINT('',(202.199995501996,-4.76250003160702,-5.83238041964671E-16));
#544=CARTESIAN_POINT('',(202.574997743131,-4.97900635312333,-6.09752419328682E-16));
#545=CARTESIAN_POINT('',(202.199995501996,4.76250003160701,0.));
#546=CARTESIAN_POINT('Origin',(202.199995501996,0.,0.));
#547=CARTESIAN_POINT('Origin',(202.199995501996,0.,0.));
#548=CARTESIAN_POINT('Origin',(187.19999490595,0.,0.));
#549=CARTESIAN_POINT('',(172.199994309904,-4.76250003160701,-5.8323804196467E-16));
#550=CARTESIAN_POINT('',(187.19999490595,-4.76250003160701,-5.8323804196467E-16));
#551=CARTESIAN_POINT('',(172.199994309904,4.76250003160701,0.));
#552=CARTESIAN_POINT('Origin',(172.199994309904,0.,0.));
#553=CARTESIAN_POINT('Origin',(172.199994309904,0.,0.));
#554=CARTESIAN_POINT('Origin',(172.127224489213,0.,0.));
#555=CARTESIAN_POINT('',(172.054454668523,-4.99999986098872,-6.12323382549704E-16));
#556=CARTESIAN_POINT('',(172.127224489213,-4.88124994629786,-5.97780712257187E-16));
#557=CARTESIAN_POINT('',(172.054454668523,4.99999986098872,0.));
#558=CARTESIAN_POINT('Origin',(172.054454668523,0.,0.));
#559=CARTESIAN_POINT('Origin',(172.054454668523,0.,0.));
#560=CARTESIAN_POINT('Origin',(86.5272273501432,0.,0.));
#561=CARTESIAN_POINT('',(86.5272273501432,-4.99999986098872,-6.12323382549704E-16));
#562=UNCERTAINTY_MEASURE_WITH_UNIT(LENGTH_MEASURE(0.01),#566,
'DISTANCE_ACCURACY_VALUE',
'Maximum model space distance between geometric entities at asserted c
onnectivities');
#563=UNCERTAINTY_MEASURE_WITH_UNIT(LENGTH_MEASURE(0.01),#566,
'DISTANCE_ACCURACY_VALUE',
'Maximum model space distance between geometric entities at asserted c
onnectivities');
#564=(
GEOMETRIC_REPRESENTATION_CONTEXT(3)
GLOBAL_UNCERTAINTY_ASSIGNED_CONTEXT((#562))
GLOBAL_UNIT_ASSIGNED_CONTEXT((#566,#569,#568))
REPRESENTATION_CONTEXT('','3D')
);
#565=(
GEOMETRIC_REPRESENTATION_CONTEXT(3)
GLOBAL_UNCERTAINTY_ASSIGNED_CONTEXT((#563))
GLOBAL_UNIT_ASSIGNED_CONTEXT((#566,#569,#568))
REPRESENTATION_CONTEXT('','3D')
);
#566=(
LENGTH_UNIT()
NAMED_UNIT(*)
SI_UNIT(.MILLI.,.METRE.)
);
#567=(
LENGTH_UNIT()
NAMED_UNIT(*)
SI_UNIT(.CENTI.,.METRE.)
);
#568=(
NAMED_UNIT(*)
SI_UNIT($,.STERADIAN.)
SOLID_ANGLE_UNIT()
);
#569=(
NAMED_UNIT(*)
PLANE_ANGLE_UNIT()
SI_UNIT($,.RADIAN.)
);
#570=SHAPE_DEFINITION_REPRESENTATION(#571,#572);
#571=PRODUCT_DEFINITION_SHAPE('',$,#574);
#572=SHAPE_REPRESENTATION('',(#310),#564);
#573=PRODUCT_DEFINITION_CONTEXT('part definition',#578,'design');
#574=PRODUCT_DEFINITION('S100-SD037-0800','S100-SD037-0800',#575,#573);
#575=PRODUCT_DEFINITION_FORMATION('',$,#580);
#576=PRODUCT_RELATED_PRODUCT_CATEGORY('S100-SD037-0800',
'S100-SD037-0800',(#580));
#577=APPLICATION_PROTOCOL_DEFINITION('international standard',
'automotive_design',2009,#578);
#578=APPLICATION_CONTEXT(
'Core Data for Automotive Mechanical Design Process');
#579=PRODUCT_CONTEXT('part definition',#578,'mechanical');
#580=PRODUCT('S100-SD037-0800','S100-SD037-0800',$,(#579));
#581=PRESENTATION_STYLE_ASSIGNMENT((#582));
#582=SURFACE_STYLE_USAGE(.BOTH.,#583);
#583=SURFACE_SIDE_STYLE('',(#584));
#584=SURFACE_STYLE_FILL_AREA(#585);
#585=FILL_AREA_STYLE('',(#586));
#586=FILL_AREA_STYLE_COLOUR('',#587);
#587=COLOUR_RGB('',0.749019607843137,0.749019607843137,0.749019607843137);
ENDSEC;
END-ISO-10303-21;
