ISO-10303-21;
HEADER;
/* Generated by software containing ST-Developer
 * from STEP Tools, Inc. (www.steptools.com) 
 */

FILE_DESCRIPTION(
/* description */ (''),
/* implementation_level */ '2;1');

FILE_NAME(
/* name */ '/Users/lee/Downloads/S075-SN031-0433 v1.step',
/* time_stamp */ '2022-09-09T13:23:08-05:00',
/* author */ (''),
/* organization */ (''),
/* preprocessor_version */ 'ST-DEVELOPER v19',
/* originating_system */ 'Autodesk Translation Framework v11.7.0.108',
/* authorisation */ '');

FILE_SCHEMA (('AUTOMOTIVE_DESIGN { 1 0 10303 214 3 1 1 }'));
ENDSEC;

DATA;
#10=MECHANICAL_DESIGN_GEOMETRIC_PRESENTATION_REPRESENTATION('',(#13),#419);
#11=SHAPE_REPRESENTATION_RELATIONSHIP('SRR','None',#426,#12);
#12=ADVANCED_BREP_SHAPE_REPRESENTATION('',(#14),#418);
#13=STYLED_ITEM('',(#435),#14);
#14=MANIFOLD_SOLID_BREP('Body1',#221);
#15=FACE_BOUND('',#47,.T.);
#16=FACE_BOUND('',#56,.T.);
#17=PLANE('',#247);
#18=PLANE('',#267);
#19=TOROIDAL_SURFACE('',#244,4.98512933679463,0.499999995000019);
#20=TOROIDAL_SURFACE('',#249,4.37314523995124,0.199999998000008);
#21=TOROIDAL_SURFACE('',#264,4.90414523464128,0.199999997999998);
#22=TOROIDAL_SURFACE('',#269,8.52500001,0.999999990000005);
#23=CONICAL_SURFACE('',#239,8.15284158309436,0.281231033324829);
#24=CONICAL_SURFACE('',#241,6.13257424143569,0.0515426868811968);
#25=CONICAL_SURFACE('',#253,4.08447010824318,0.523598775598249);
#26=CONICAL_SURFACE('',#257,4.23450005290496,1.02101761241672);
#27=CONICAL_SURFACE('',#261,4.61547010293322,0.523598775598296);
#28=FACE_OUTER_BOUND('',#42,.T.);
#29=FACE_OUTER_BOUND('',#43,.T.);
#30=FACE_OUTER_BOUND('',#44,.T.);
#31=FACE_OUTER_BOUND('',#45,.T.);
#32=FACE_OUTER_BOUND('',#46,.T.);
#33=FACE_OUTER_BOUND('',#48,.T.);
#34=FACE_OUTER_BOUND('',#49,.T.);
#35=FACE_OUTER_BOUND('',#50,.T.);
#36=FACE_OUTER_BOUND('',#51,.T.);
#37=FACE_OUTER_BOUND('',#52,.T.);
#38=FACE_OUTER_BOUND('',#53,.T.);
#39=FACE_OUTER_BOUND('',#54,.T.);
#40=FACE_OUTER_BOUND('',#55,.T.);
#41=FACE_OUTER_BOUND('',#57,.T.);
#42=EDGE_LOOP('',(#144,#145,#146,#147,#148));
#43=EDGE_LOOP('',(#149,#150,#151,#152));
#44=EDGE_LOOP('',(#153,#154,#155,#156,#157));
#45=EDGE_LOOP('',(#158,#159,#160,#161,#162));
#46=EDGE_LOOP('',(#163));
#47=EDGE_LOOP('',(#164));
#48=EDGE_LOOP('',(#165,#166,#167,#168,#169));
#49=EDGE_LOOP('',(#170,#171,#172,#173,#174));
#50=EDGE_LOOP('',(#175,#176,#177,#178));
#51=EDGE_LOOP('',(#179,#180,#181,#182));
#52=EDGE_LOOP('',(#183,#184,#185,#186));
#53=EDGE_LOOP('',(#187,#188,#189,#190,#191));
#54=EDGE_LOOP('',(#192,#193,#194,#195,#196));
#55=EDGE_LOOP('',(#197));
#56=EDGE_LOOP('',(#198));
#57=EDGE_LOOP('',(#199,#200,#201,#202,#203));
#58=LINE('',#358,#66);
#59=LINE('',#365,#67);
#60=LINE('',#370,#68);
#61=LINE('',#387,#69);
#62=LINE('',#391,#70);
#63=LINE('',#395,#71);
#64=LINE('',#399,#72);
#65=LINE('',#403,#73);
#66=VECTOR('',#277,9.52499999999999);
#67=VECTOR('',#286,8.15284158309436);
#68=VECTOR('',#291,6.13257424143569);
#69=VECTOR('',#314,4.08447010824318);
#70=VECTOR('',#319,3.96900005555996);
#71=VECTOR('',#324,4.23450005290496);
#72=VECTOR('',#329,4.50000005024998);
#73=VECTOR('',#334,4.61547010293322);
#74=CIRCLE('',#236,9.52499999999998);
#75=CIRCLE('',#237,9.52500000000001);
#76=CIRCLE('',#238,9.52500000000001);
#77=CIRCLE('',#240,6.78068316618874);
#78=CIRCLE('',#242,5.48446531668263);
#79=CIRCLE('',#243,5.48446531668263);
#80=CIRCLE('',#245,4.98512933679463);
#81=CIRCLE('',#246,0.499999995000019);
#82=CIRCLE('',#248,4.37314523995124);
#83=CIRCLE('',#250,4.1999401609264);
#84=CIRCLE('',#251,4.1999401609264);
#85=CIRCLE('',#252,0.199999998000008);
#86=CIRCLE('',#254,3.96900005555996);
#87=CIRCLE('',#256,3.96900005555996);
#88=CIRCLE('',#258,4.50000005024997);
#89=CIRCLE('',#260,4.50000005025);
#90=CIRCLE('',#262,4.73094015561645);
#91=CIRCLE('',#263,4.73094015561645);
#92=CIRCLE('',#265,4.90414523464128);
#93=CIRCLE('',#266,0.199999997999998);
#94=CIRCLE('',#268,8.52500001);
#95=CIRCLE('',#270,0.999999990000005);
#96=VERTEX_POINT('',#355);
#97=VERTEX_POINT('',#357);
#98=VERTEX_POINT('',#359);
#99=VERTEX_POINT('',#363);
#100=VERTEX_POINT('',#367);
#101=VERTEX_POINT('',#368);
#102=VERTEX_POINT('',#373);
#103=VERTEX_POINT('',#377);
#104=VERTEX_POINT('',#380);
#105=VERTEX_POINT('',#381);
#106=VERTEX_POINT('',#386);
#107=VERTEX_POINT('',#390);
#108=VERTEX_POINT('',#394);
#109=VERTEX_POINT('',#398);
#110=VERTEX_POINT('',#402);
#111=VERTEX_POINT('',#404);
#112=VERTEX_POINT('',#408);
#113=VERTEX_POINT('',#412);
#114=EDGE_CURVE('',#96,#96,#74,.T.);
#115=EDGE_CURVE('',#96,#97,#58,.T.);
#116=EDGE_CURVE('',#97,#98,#75,.T.);
#117=EDGE_CURVE('',#98,#97,#76,.T.);
#118=EDGE_CURVE('',#99,#99,#77,.T.);
#119=EDGE_CURVE('',#99,#96,#59,.T.);
#120=EDGE_CURVE('',#100,#101,#78,.T.);
#121=EDGE_CURVE('',#100,#99,#60,.T.);
#122=EDGE_CURVE('',#101,#100,#79,.T.);
#123=EDGE_CURVE('',#102,#102,#80,.T.);
#124=EDGE_CURVE('',#102,#101,#81,.T.);
#125=EDGE_CURVE('',#103,#103,#82,.T.);
#126=EDGE_CURVE('',#104,#105,#83,.T.);
#127=EDGE_CURVE('',#105,#104,#84,.T.);
#128=EDGE_CURVE('',#105,#103,#85,.T.);
#129=EDGE_CURVE('',#104,#106,#61,.T.);
#130=EDGE_CURVE('',#106,#106,#86,.T.);
#131=EDGE_CURVE('',#106,#107,#62,.T.);
#132=EDGE_CURVE('',#107,#107,#87,.T.);
#133=EDGE_CURVE('',#107,#108,#63,.T.);
#134=EDGE_CURVE('',#108,#108,#88,.T.);
#135=EDGE_CURVE('',#108,#109,#64,.T.);
#136=EDGE_CURVE('',#109,#109,#89,.T.);
#137=EDGE_CURVE('',#109,#110,#65,.T.);
#138=EDGE_CURVE('',#111,#110,#90,.T.);
#139=EDGE_CURVE('',#110,#111,#91,.T.);
#140=EDGE_CURVE('',#112,#112,#92,.T.);
#141=EDGE_CURVE('',#112,#111,#93,.T.);
#142=EDGE_CURVE('',#113,#113,#94,.T.);
#143=EDGE_CURVE('',#98,#113,#95,.T.);
#144=ORIENTED_EDGE('',*,*,#114,.F.);
#145=ORIENTED_EDGE('',*,*,#115,.T.);
#146=ORIENTED_EDGE('',*,*,#116,.T.);
#147=ORIENTED_EDGE('',*,*,#117,.T.);
#148=ORIENTED_EDGE('',*,*,#115,.F.);
#149=ORIENTED_EDGE('',*,*,#118,.F.);
#150=ORIENTED_EDGE('',*,*,#119,.T.);
#151=ORIENTED_EDGE('',*,*,#114,.T.);
#152=ORIENTED_EDGE('',*,*,#119,.F.);
#153=ORIENTED_EDGE('',*,*,#120,.F.);
#154=ORIENTED_EDGE('',*,*,#121,.T.);
#155=ORIENTED_EDGE('',*,*,#118,.T.);
#156=ORIENTED_EDGE('',*,*,#121,.F.);
#157=ORIENTED_EDGE('',*,*,#122,.F.);
#158=ORIENTED_EDGE('',*,*,#123,.F.);
#159=ORIENTED_EDGE('',*,*,#124,.T.);
#160=ORIENTED_EDGE('',*,*,#122,.T.);
#161=ORIENTED_EDGE('',*,*,#120,.T.);
#162=ORIENTED_EDGE('',*,*,#124,.F.);
#163=ORIENTED_EDGE('',*,*,#123,.T.);
#164=ORIENTED_EDGE('',*,*,#125,.F.);
#165=ORIENTED_EDGE('',*,*,#126,.F.);
#166=ORIENTED_EDGE('',*,*,#127,.F.);
#167=ORIENTED_EDGE('',*,*,#128,.T.);
#168=ORIENTED_EDGE('',*,*,#125,.T.);
#169=ORIENTED_EDGE('',*,*,#128,.F.);
#170=ORIENTED_EDGE('',*,*,#126,.T.);
#171=ORIENTED_EDGE('',*,*,#127,.T.);
#172=ORIENTED_EDGE('',*,*,#129,.T.);
#173=ORIENTED_EDGE('',*,*,#130,.F.);
#174=ORIENTED_EDGE('',*,*,#129,.F.);
#175=ORIENTED_EDGE('',*,*,#130,.T.);
#176=ORIENTED_EDGE('',*,*,#131,.T.);
#177=ORIENTED_EDGE('',*,*,#132,.F.);
#178=ORIENTED_EDGE('',*,*,#131,.F.);
#179=ORIENTED_EDGE('',*,*,#132,.T.);
#180=ORIENTED_EDGE('',*,*,#133,.T.);
#181=ORIENTED_EDGE('',*,*,#134,.F.);
#182=ORIENTED_EDGE('',*,*,#133,.F.);
#183=ORIENTED_EDGE('',*,*,#134,.T.);
#184=ORIENTED_EDGE('',*,*,#135,.T.);
#185=ORIENTED_EDGE('',*,*,#136,.F.);
#186=ORIENTED_EDGE('',*,*,#135,.F.);
#187=ORIENTED_EDGE('',*,*,#136,.T.);
#188=ORIENTED_EDGE('',*,*,#137,.T.);
#189=ORIENTED_EDGE('',*,*,#138,.F.);
#190=ORIENTED_EDGE('',*,*,#139,.F.);
#191=ORIENTED_EDGE('',*,*,#137,.F.);
#192=ORIENTED_EDGE('',*,*,#140,.F.);
#193=ORIENTED_EDGE('',*,*,#141,.T.);
#194=ORIENTED_EDGE('',*,*,#138,.T.);
#195=ORIENTED_EDGE('',*,*,#139,.T.);
#196=ORIENTED_EDGE('',*,*,#141,.F.);
#197=ORIENTED_EDGE('',*,*,#142,.F.);
#198=ORIENTED_EDGE('',*,*,#140,.T.);
#199=ORIENTED_EDGE('',*,*,#116,.F.);
#200=ORIENTED_EDGE('',*,*,#117,.F.);
#201=ORIENTED_EDGE('',*,*,#143,.T.);
#202=ORIENTED_EDGE('',*,*,#142,.T.);
#203=ORIENTED_EDGE('',*,*,#143,.F.);
#204=CYLINDRICAL_SURFACE('',#235,9.52499999999999);
#205=CYLINDRICAL_SURFACE('',#255,3.96900005555996);
#206=CYLINDRICAL_SURFACE('',#259,4.50000005024998);
#207=ADVANCED_FACE('',(#28),#204,.T.);
#208=ADVANCED_FACE('',(#29),#23,.T.);
#209=ADVANCED_FACE('',(#30),#24,.T.);
#210=ADVANCED_FACE('',(#31),#19,.T.);
#211=ADVANCED_FACE('',(#32,#15),#17,.T.);
#212=ADVANCED_FACE('',(#33),#20,.T.);
#213=ADVANCED_FACE('',(#34),#25,.F.);
#214=ADVANCED_FACE('',(#35),#205,.F.);
#215=ADVANCED_FACE('',(#36),#26,.F.);
#216=ADVANCED_FACE('',(#37),#206,.F.);
#217=ADVANCED_FACE('',(#38),#27,.F.);
#218=ADVANCED_FACE('',(#39),#21,.T.);
#219=ADVANCED_FACE('',(#40,#16),#18,.T.);
#220=ADVANCED_FACE('',(#41),#22,.T.);
#221=CLOSED_SHELL('',(#207,#208,#209,#210,#211,#212,#213,#214,#215,#216,
#217,#218,#219,#220));
#222=DERIVED_UNIT_ELEMENT(#224,1.);
#223=DERIVED_UNIT_ELEMENT(#421,-3.);
#224=(
MASS_UNIT()
NAMED_UNIT(*)
SI_UNIT(.KILO.,.GRAM.)
);
#225=DERIVED_UNIT((#222,#223));
#226=MEASURE_REPRESENTATION_ITEM('density measure',
POSITIVE_RATIO_MEASURE(1000.),#225);
#227=PROPERTY_DEFINITION_REPRESENTATION(#232,#229);
#228=PROPERTY_DEFINITION_REPRESENTATION(#233,#230);
#229=REPRESENTATION('material name',(#231),#418);
#230=REPRESENTATION('density',(#226),#418);
#231=DESCRIPTIVE_REPRESENTATION_ITEM('Generic','Generic');
#232=PROPERTY_DEFINITION('material property','material name',#428);
#233=PROPERTY_DEFINITION('material property','density of part',#428);
#234=AXIS2_PLACEMENT_3D('placement',#353,#271,#272);
#235=AXIS2_PLACEMENT_3D('',#354,#273,#274);
#236=AXIS2_PLACEMENT_3D('',#356,#275,#276);
#237=AXIS2_PLACEMENT_3D('',#360,#278,#279);
#238=AXIS2_PLACEMENT_3D('',#361,#280,#281);
#239=AXIS2_PLACEMENT_3D('',#362,#282,#283);
#240=AXIS2_PLACEMENT_3D('',#364,#284,#285);
#241=AXIS2_PLACEMENT_3D('',#366,#287,#288);
#242=AXIS2_PLACEMENT_3D('',#369,#289,#290);
#243=AXIS2_PLACEMENT_3D('',#371,#292,#293);
#244=AXIS2_PLACEMENT_3D('',#372,#294,#295);
#245=AXIS2_PLACEMENT_3D('',#374,#296,#297);
#246=AXIS2_PLACEMENT_3D('',#375,#298,#299);
#247=AXIS2_PLACEMENT_3D('',#376,#300,#301);
#248=AXIS2_PLACEMENT_3D('',#378,#302,#303);
#249=AXIS2_PLACEMENT_3D('',#379,#304,#305);
#250=AXIS2_PLACEMENT_3D('',#382,#306,#307);
#251=AXIS2_PLACEMENT_3D('',#383,#308,#309);
#252=AXIS2_PLACEMENT_3D('',#384,#310,#311);
#253=AXIS2_PLACEMENT_3D('',#385,#312,#313);
#254=AXIS2_PLACEMENT_3D('',#388,#315,#316);
#255=AXIS2_PLACEMENT_3D('',#389,#317,#318);
#256=AXIS2_PLACEMENT_3D('',#392,#320,#321);
#257=AXIS2_PLACEMENT_3D('',#393,#322,#323);
#258=AXIS2_PLACEMENT_3D('',#396,#325,#326);
#259=AXIS2_PLACEMENT_3D('',#397,#327,#328);
#260=AXIS2_PLACEMENT_3D('',#400,#330,#331);
#261=AXIS2_PLACEMENT_3D('',#401,#332,#333);
#262=AXIS2_PLACEMENT_3D('',#405,#335,#336);
#263=AXIS2_PLACEMENT_3D('',#406,#337,#338);
#264=AXIS2_PLACEMENT_3D('',#407,#339,#340);
#265=AXIS2_PLACEMENT_3D('',#409,#341,#342);
#266=AXIS2_PLACEMENT_3D('',#410,#343,#344);
#267=AXIS2_PLACEMENT_3D('',#411,#345,#346);
#268=AXIS2_PLACEMENT_3D('',#413,#347,#348);
#269=AXIS2_PLACEMENT_3D('',#414,#349,#350);
#270=AXIS2_PLACEMENT_3D('',#415,#351,#352);
#271=DIRECTION('axis',(0.,0.,1.));
#272=DIRECTION('refdir',(1.,0.,0.));
#273=DIRECTION('center_axis',(1.,3.92884363722777E-16,0.));
#274=DIRECTION('ref_axis',(-3.87933323717173E-16,1.,0.));
#275=DIRECTION('center_axis',(1.,3.92884363722777E-16,0.));
#276=DIRECTION('ref_axis',(0.,0.,-1.));
#277=DIRECTION('',(-1.,-3.92884363722777E-16,0.));
#278=DIRECTION('center_axis',(1.,3.92884363722777E-16,0.));
#279=DIRECTION('ref_axis',(0.,0.,-1.));
#280=DIRECTION('center_axis',(1.,3.92884363722777E-16,0.));
#281=DIRECTION('ref_axis',(0.,0.,-1.));
#282=DIRECTION('center_axis',(-1.,-3.92884363722777E-16,0.));
#283=DIRECTION('ref_axis',(-3.87933323717173E-16,1.,0.));
#284=DIRECTION('center_axis',(1.,3.92884363722777E-16,0.));
#285=DIRECTION('ref_axis',(0.,0.,-1.));
#286=DIRECTION('',(-0.960714507171511,-0.277538530136268,-3.39886672571441E-17));
#287=DIRECTION('center_axis',(-1.,-3.92884363722777E-16,0.));
#288=DIRECTION('ref_axis',(-3.87933323717173E-16,1.,0.));
#289=DIRECTION('center_axis',(1.,3.92884363722777E-16,0.));
#290=DIRECTION('ref_axis',(0.,0.,-1.));
#291=DIRECTION('',(-0.998671969762728,-0.0515198681115732,-6.30936415753314E-18));
#292=DIRECTION('center_axis',(1.,3.92884363722777E-16,0.));
#293=DIRECTION('ref_axis',(0.,0.,-1.));
#294=DIRECTION('center_axis',(1.,3.92884363722777E-16,0.));
#295=DIRECTION('ref_axis',(0.,0.,-1.));
#296=DIRECTION('center_axis',(1.,3.92884363722777E-16,0.));
#297=DIRECTION('ref_axis',(0.,0.,-1.));
#298=DIRECTION('center_axis',(3.92884363722777E-16,-1.,-1.22464681207114E-16));
#299=DIRECTION('ref_axis',(0.,-1.22464681207114E-16,1.));
#300=DIRECTION('center_axis',(1.,3.92884363722777E-16,0.));
#301=DIRECTION('ref_axis',(0.,0.,-1.));
#302=DIRECTION('center_axis',(1.,3.92884363722777E-16,0.));
#303=DIRECTION('ref_axis',(0.,0.,-1.));
#304=DIRECTION('center_axis',(1.,3.92884363722777E-16,0.));
#305=DIRECTION('ref_axis',(0.,0.,-1.));
#306=DIRECTION('center_axis',(1.,3.92884363722777E-16,0.));
#307=DIRECTION('ref_axis',(0.,0.,-1.));
#308=DIRECTION('center_axis',(1.,3.92884363722777E-16,0.));
#309=DIRECTION('ref_axis',(0.,0.,-1.));
#310=DIRECTION('center_axis',(3.92884363722777E-16,-1.,-1.2246468071066E-16));
#311=DIRECTION('ref_axis',(0.,-1.2246468071066E-16,1.));
#312=DIRECTION('center_axis',(1.,3.92884363722777E-16,0.));
#313=DIRECTION('ref_axis',(-3.87933323717173E-16,1.,0.));
#314=DIRECTION('',(-0.866025403784464,0.499999999999957,6.12323399573624E-17));
#315=DIRECTION('center_axis',(1.,3.92884363722777E-16,0.));
#316=DIRECTION('ref_axis',(0.,0.,-1.));
#317=DIRECTION('center_axis',(1.,3.92884363722777E-16,0.));
#318=DIRECTION('ref_axis',(-3.87933323717173E-16,1.,0.));
#319=DIRECTION('',(-1.,-3.92884363722777E-16,0.));
#320=DIRECTION('center_axis',(1.,3.92884363722777E-16,0.));
#321=DIRECTION('ref_axis',(0.,0.,-1.));
#322=DIRECTION('center_axis',(-1.,-3.92884363722777E-16,0.));
#323=DIRECTION('ref_axis',(-3.87933323717173E-16,1.,0.));
#324=DIRECTION('',(-0.522498564715916,-0.852640164354112,-1.04418304810074E-16));
#325=DIRECTION('center_axis',(1.,3.92884363722777E-16,0.));
#326=DIRECTION('ref_axis',(0.,0.,-1.));
#327=DIRECTION('center_axis',(1.,3.92884363722777E-16,0.));
#328=DIRECTION('ref_axis',(-3.87933323717173E-16,1.,0.));
#329=DIRECTION('',(-1.,-3.92884363722777E-16,0.));
#330=DIRECTION('center_axis',(1.,3.92884363722777E-16,0.));
#331=DIRECTION('ref_axis',(0.,0.,-1.));
#332=DIRECTION('center_axis',(-1.,-3.92884363722777E-16,0.));
#333=DIRECTION('ref_axis',(-3.87933323717173E-16,1.,0.));
#334=DIRECTION('',(-0.86602540378444,-0.499999999999998,-6.12323399573674E-17));
#335=DIRECTION('center_axis',(1.,3.92884363722777E-16,0.));
#336=DIRECTION('ref_axis',(0.,0.,-1.));
#337=DIRECTION('center_axis',(1.,3.92884363722777E-16,0.));
#338=DIRECTION('ref_axis',(0.,0.,-1.));
#339=DIRECTION('center_axis',(1.,3.92884363722777E-16,0.));
#340=DIRECTION('ref_axis',(0.,0.,-1.));
#341=DIRECTION('center_axis',(1.,3.92884363722777E-16,0.));
#342=DIRECTION('ref_axis',(0.,0.,-1.));
#343=DIRECTION('center_axis',(3.92884363722777E-16,-1.,-1.22464679314604E-16));
#344=DIRECTION('ref_axis',(0.,-1.22464679314604E-16,1.));
#345=DIRECTION('center_axis',(-1.,-3.92884363722777E-16,0.));
#346=DIRECTION('ref_axis',(0.,0.,1.));
#347=DIRECTION('center_axis',(1.,3.92884363722777E-16,0.));
#348=DIRECTION('ref_axis',(0.,0.,-1.));
#349=DIRECTION('center_axis',(1.,3.92884363722777E-16,0.));
#350=DIRECTION('ref_axis',(0.,0.,-1.));
#351=DIRECTION('center_axis',(3.92884363722777E-16,-1.,-1.22464679353185E-16));
#352=DIRECTION('ref_axis',(0.,-1.22464679353185E-16,1.));
#353=CARTESIAN_POINT('',(0.,0.,0.));
#354=CARTESIAN_POINT('Origin',(37.9499996205,-9.52499356246104E-8,0.));
#355=CARTESIAN_POINT('',(74.899999251,-9.52500009524991,-1.16647607618785E-15));
#356=CARTESIAN_POINT('Origin',(74.899999251,-9.52499211075333E-8,0.));
#357=CARTESIAN_POINT('',(0.999999990000013,-9.52500009524994,-1.16647607618785E-15));
#358=CARTESIAN_POINT('',(37.9499996205,-9.52500009524993,-1.16647607618785E-15));
#359=CARTESIAN_POINT('',(0.999999990000009,-9.52499513081636E-8,9.52500000000001));
#360=CARTESIAN_POINT('Origin',(0.999999990000009,-9.52499501416875E-8,0.));
#361=CARTESIAN_POINT('Origin',(0.999999990000009,-9.52499501416875E-8,0.));
#362=CARTESIAN_POINT('Origin',(79.649799203502,-9.52499192414112E-8,0.));
#363=CARTESIAN_POINT('',(84.399599156004,-6.78068326143866,-8.30394193550538E-16));
#364=CARTESIAN_POINT('Origin',(84.399599156004,-9.52499173752891E-8,0.));
#365=CARTESIAN_POINT('',(79.649799203502,-8.15284167834428,-9.98435134869195E-16));
#366=CARTESIAN_POINT('Origin',(96.9626789974011,-9.52499124394514E-8,0.));
#367=CARTESIAN_POINT('',(109.525758838798,-5.48446541193254,-6.71653289511006E-16));
#368=CARTESIAN_POINT('',(109.525758838798,-9.52499081752671E-8,5.48446531668263));
#369=CARTESIAN_POINT('Origin',(109.525758838798,-9.52499075036138E-8,0.));
#370=CARTESIAN_POINT('',(96.9626789974011,-6.1325743366856,-7.51023741530772E-16));
#371=CARTESIAN_POINT('Origin',(109.525758838798,-9.52499075036138E-8,0.));
#372=CARTESIAN_POINT('Origin',(109.499998905,-9.52499075137345E-8,0.));
#373=CARTESIAN_POINT('',(109.9999989,-9.52499079277946E-8,4.98512933679463));
#374=CARTESIAN_POINT('Origin',(109.9999989,-9.52499073172923E-8,0.));
#375=CARTESIAN_POINT('Origin',(109.499998905,-9.52499081242368E-8,4.98512933679463));
#376=CARTESIAN_POINT('Origin',(109.9999989,4.37314514470133,0.));
#377=CARTESIAN_POINT('',(109.9999989,-9.52499078528481E-8,4.37314523995124));
#378=CARTESIAN_POINT('Origin',(109.9999989,-9.52499073172923E-8,0.));
#379=CARTESIAN_POINT('Origin',(109.799998902,-9.52499073958692E-8,0.));
#380=CARTESIAN_POINT('',(109.899998901,-4.19994025617631,-5.14344327468893E-16));
#381=CARTESIAN_POINT('',(109.899998901,-9.52499078709251E-8,4.1999401609264));
#382=CARTESIAN_POINT('Origin',(109.899998901,-9.52499073565807E-8,0.));
#383=CARTESIAN_POINT('Origin',(109.899998901,-9.52499073565807E-8,0.));
#384=CARTESIAN_POINT('Origin',(109.799998902,-9.5249907931425E-8,4.37314523995124));
#385=CARTESIAN_POINT('Origin',(109.699998903,-9.52499074351576E-8,0.));
#386=CARTESIAN_POINT('',(109.499998905,-3.96900015080987,-4.86062321385717E-16));
#387=CARTESIAN_POINT('',(109.699998903,-4.08447020349309,-5.00203324427305E-16));
#388=CARTESIAN_POINT('Origin',(109.499998905,-9.52499075137345E-8,0.));
#389=CARTESIAN_POINT('Origin',(96.7499990325,-9.52499125230101E-8,0.));
#390=CARTESIAN_POINT('',(83.99999916,-3.96900015080988,-4.86062321385717E-16));
#391=CARTESIAN_POINT('',(96.7499990325,-3.96900015080987,-4.86062321385717E-16));
#392=CARTESIAN_POINT('Origin',(83.99999916,-9.52499175322856E-8,0.));
#393=CARTESIAN_POINT('Origin',(83.8373005523759,-9.52499175962074E-8,0.));
#394=CARTESIAN_POINT('',(83.6746019447517,-4.50000014549988,-5.51091065770155E-16));
#395=CARTESIAN_POINT('',(83.8373005523759,-4.23450014815488,-5.18576693577936E-16));
#396=CARTESIAN_POINT('Origin',(83.6746019447517,-9.52499176601291E-8,0.));
#397=CARTESIAN_POINT('Origin',(42.0873009698759,-9.52499339991294E-8,0.));
#398=CARTESIAN_POINT('',(0.499999994999998,-4.50000014549993,-5.51091065770157E-16));
#399=CARTESIAN_POINT('',(42.0873009698759,-4.50000014549992,-5.51091065770157E-16));
#400=CARTESIAN_POINT('Origin',(0.499999995000002,-9.52499503381297E-8,0.));
#401=CARTESIAN_POINT('Origin',(0.299999997000001,-9.52499504167066E-8,0.));
#402=CARTESIAN_POINT('',(0.0999999990000023,-4.7309402508664,-5.79373071853336E-16));
#403=CARTESIAN_POINT('',(0.299999997000003,-4.61547019818317,-5.65232068811748E-16));
#404=CARTESIAN_POINT('',(0.0999999990000007,-9.52499510746565E-8,4.73094015561645));
#405=CARTESIAN_POINT('Origin',(0.0999999990000007,-9.52499504952834E-8,
0.));
#406=CARTESIAN_POINT('Origin',(0.0999999990000007,-9.52499504952834E-8,
0.));
#407=CARTESIAN_POINT('Origin',(0.199999998,-9.5249950455995E-8,0.));
#408=CARTESIAN_POINT('',(6.17561557447743E-15,-9.52499511351565E-8,4.90414523464128));
#409=CARTESIAN_POINT('Origin',(6.17561557447743E-15,-9.52499505345719E-8,
0.));
#410=CARTESIAN_POINT('Origin',(0.199999998,-9.52499510565796E-8,4.90414523464128));
#411=CARTESIAN_POINT('Origin',(0.,8.52499991475005,0.));
#412=CARTESIAN_POINT('',(3.33066907387547E-15,-9.52499515785832E-8,8.52500001));
#413=CARTESIAN_POINT('Origin',(3.33066907387547E-15,-9.52499505345719E-8,
0.));
#414=CARTESIAN_POINT('Origin',(0.999999990000008,-9.52499501416875E-8,0.));
#415=CARTESIAN_POINT('Origin',(0.999999990000008,-9.52499511856989E-8,8.52500001));
#416=UNCERTAINTY_MEASURE_WITH_UNIT(LENGTH_MEASURE(0.01),#420,
'DISTANCE_ACCURACY_VALUE',
'Maximum model space distance between geometric entities at asserted c
onnectivities');
#417=UNCERTAINTY_MEASURE_WITH_UNIT(LENGTH_MEASURE(0.01),#420,
'DISTANCE_ACCURACY_VALUE',
'Maximum model space distance between geometric entities at asserted c
onnectivities');
#418=(
GEOMETRIC_REPRESENTATION_CONTEXT(3)
GLOBAL_UNCERTAINTY_ASSIGNED_CONTEXT((#416))
GLOBAL_UNIT_ASSIGNED_CONTEXT((#420,#422,#423))
REPRESENTATION_CONTEXT('','3D')
);
#419=(
GEOMETRIC_REPRESENTATION_CONTEXT(3)
GLOBAL_UNCERTAINTY_ASSIGNED_CONTEXT((#417))
GLOBAL_UNIT_ASSIGNED_CONTEXT((#420,#422,#423))
REPRESENTATION_CONTEXT('','3D')
);
#420=(
LENGTH_UNIT()
NAMED_UNIT(*)
SI_UNIT(.MILLI.,.METRE.)
);
#421=(
LENGTH_UNIT()
NAMED_UNIT(*)
SI_UNIT($,.METRE.)
);
#422=(
NAMED_UNIT(*)
PLANE_ANGLE_UNIT()
SI_UNIT($,.RADIAN.)
);
#423=(
NAMED_UNIT(*)
SI_UNIT($,.STERADIAN.)
SOLID_ANGLE_UNIT()
);
#424=SHAPE_DEFINITION_REPRESENTATION(#425,#426);
#425=PRODUCT_DEFINITION_SHAPE('',$,#428);
#426=SHAPE_REPRESENTATION('',(#234),#418);
#427=PRODUCT_DEFINITION_CONTEXT('part definition',#432,'design');
#428=PRODUCT_DEFINITION('S075-SN031-0433','S075-SN031-0433 v1',#429,#427);
#429=PRODUCT_DEFINITION_FORMATION('',$,#434);
#430=PRODUCT_RELATED_PRODUCT_CATEGORY('S075-SN031-0433 v1',
'S075-SN031-0433 v1',(#434));
#431=APPLICATION_PROTOCOL_DEFINITION('international standard',
'automotive_design',2009,#432);
#432=APPLICATION_CONTEXT(
'Core Data for Automotive Mechanical Design Process');
#433=PRODUCT_CONTEXT('part definition',#432,'mechanical');
#434=PRODUCT('S075-SN031-0433','S075-SN031-0433 v1',$,(#433));
#435=PRESENTATION_STYLE_ASSIGNMENT((#436));
#436=SURFACE_STYLE_USAGE(.BOTH.,#437);
#437=SURFACE_SIDE_STYLE('',(#438));
#438=SURFACE_STYLE_FILL_AREA(#439);
#439=FILL_AREA_STYLE('Default',(#440));
#440=FILL_AREA_STYLE_COLOUR('Default',#441);
#441=COLOUR_RGB('Default',0.749019607843137,0.749019607843137,0.749019607843137);
ENDSEC;
END-ISO-10303-21;
