ISO-10303-21;
HEADER;
/* Generated by software containing ST-Developer
 * from STEP Tools, Inc. (www.steptools.com) 
 */

FILE_DESCRIPTION(
/* description */ (''),
/* implementation_level */ '2;1');

FILE_NAME(
/* name */ 'C:\\Users\\Lee\\OneDrive\\Documents\\Models\\S075-SD037-04
15.stp',
/* time_stamp */ '2018-12-20T15:22:06-06:00',
/* author */ ('Lee'),
/* organization */ ('Pioneer N.A.'),
/* preprocessor_version */ 'ST-DEVELOPER v17',
/* originating_system */ 'Autodesk Inventor LT',
/* authorisation */ '');

FILE_SCHEMA (('AUTOMOTIVE_DESIGN { 1 0 10303 214 3 1 1 }'));
ENDSEC;

DATA;
#10=MECHANICAL_DESIGN_GEOMETRIC_PRESENTATION_REPRESENTATION('',(#13),#530);
#11=SHAPE_REPRESENTATION_RELATIONSHIP('SRR','None',#537,#12);
#12=ADVANCED_BREP_SHAPE_REPRESENTATION('',(#14),#529);
#13=STYLED_ITEM('',(#546),#14);
#14=MANIFOLD_SOLID_BREP('Solid1',#272);
#15=FACE_BOUND('',#44,.T.);
#16=FACE_BOUND('',#53,.T.);
#17=PLANE('',#306);
#18=PLANE('',#334);
#19=TOROIDAL_SURFACE('',#302,6.79603543328512,1.);
#20=TOROIDAL_SURFACE('',#309,5.16664518843275,0.20000000000001);
#21=TOROIDAL_SURFACE('',#330,5.40414518843274,0.199999999999999);
#22=TOROIDAL_SURFACE('',#337,8.525,1.);
#23=CONICAL_SURFACE('',#298,8.65983248401985,0.0523598775598222);
#24=CONICAL_SURFACE('',#314,4.87797005383793,0.52359877559831);
#25=CONICAL_SURFACE('',#320,4.88125,1.02101761241668);
#26=CONICAL_SURFACE('',#326,5.11547005383792,0.523598775598305);
#27=FACE_OUTER_BOUND('',#40,.T.);
#28=FACE_OUTER_BOUND('',#41,.T.);
#29=FACE_OUTER_BOUND('',#42,.T.);
#30=FACE_OUTER_BOUND('',#43,.T.);
#31=FACE_OUTER_BOUND('',#45,.T.);
#32=FACE_OUTER_BOUND('',#46,.T.);
#33=FACE_OUTER_BOUND('',#47,.T.);
#34=FACE_OUTER_BOUND('',#48,.T.);
#35=FACE_OUTER_BOUND('',#49,.T.);
#36=FACE_OUTER_BOUND('',#50,.T.);
#37=FACE_OUTER_BOUND('',#51,.T.);
#38=FACE_OUTER_BOUND('',#52,.T.);
#39=FACE_OUTER_BOUND('',#54,.T.);
#40=EDGE_LOOP('',(#174,#175,#176,#177,#178,#179,#180));
#41=EDGE_LOOP('',(#181,#182,#183,#184,#185,#186,#187));
#42=EDGE_LOOP('',(#188,#189,#190,#191,#192,#193,#194));
#43=EDGE_LOOP('',(#195,#196));
#44=EDGE_LOOP('',(#197,#198));
#45=EDGE_LOOP('',(#199,#200,#201,#202,#203,#204,#205));
#46=EDGE_LOOP('',(#206,#207,#208,#209,#210,#211,#212));
#47=EDGE_LOOP('',(#213,#214,#215,#216,#217,#218));
#48=EDGE_LOOP('',(#219,#220,#221,#222,#223,#224));
#49=EDGE_LOOP('',(#225,#226,#227,#228,#229,#230));
#50=EDGE_LOOP('',(#231,#232,#233,#234,#235,#236,#237));
#51=EDGE_LOOP('',(#238,#239,#240,#241,#242,#243,#244));
#52=EDGE_LOOP('',(#245,#246));
#53=EDGE_LOOP('',(#247,#248));
#54=EDGE_LOOP('',(#249,#250,#251,#252,#253,#254,#255));
#55=LINE('',#449,#62);
#56=LINE('',#461,#63);
#57=LINE('',#484,#64);
#58=LINE('',#490,#65);
#59=LINE('',#496,#66);
#60=LINE('',#502,#67);
#61=LINE('',#508,#68);
#62=VECTOR('',#347,9.525);
#63=VECTOR('',#360,8.65983248401985);
#64=VECTOR('',#389,4.87797005383793);
#65=VECTOR('',#396,4.7625);
#66=VECTOR('',#403,4.88125);
#67=VECTOR('',#410,5.);
#68=VECTOR('',#417,5.11547005383793);
#69=CIRCLE('',#293,9.525);
#70=CIRCLE('',#294,9.525);
#71=CIRCLE('',#295,9.525);
#72=CIRCLE('',#296,9.525);
#73=CIRCLE('',#297,9.525);
#74=CIRCLE('',#299,7.79466496803969);
#75=CIRCLE('',#300,7.79466496803969);
#76=CIRCLE('',#301,7.79466496803969);
#77=CIRCLE('',#303,6.79603543328512);
#78=CIRCLE('',#304,6.79603543328512);
#79=CIRCLE('',#305,1.);
#80=CIRCLE('',#307,5.16664518843275);
#81=CIRCLE('',#308,5.16664518843275);
#82=CIRCLE('',#310,4.99344010767585);
#83=CIRCLE('',#311,4.99344010767585);
#84=CIRCLE('',#312,4.99344010767585);
#85=CIRCLE('',#313,0.20000000000001);
#86=CIRCLE('',#315,4.7625);
#87=CIRCLE('',#316,4.7625);
#88=CIRCLE('',#318,4.7625);
#89=CIRCLE('',#319,4.7625);
#90=CIRCLE('',#321,5.);
#91=CIRCLE('',#322,5.);
#92=CIRCLE('',#324,5.);
#93=CIRCLE('',#325,5.);
#94=CIRCLE('',#327,5.23094010767585);
#95=CIRCLE('',#328,5.23094010767585);
#96=CIRCLE('',#329,5.23094010767585);
#97=CIRCLE('',#331,5.40414518843274);
#98=CIRCLE('',#332,5.40414518843274);
#99=CIRCLE('',#333,0.199999999999999);
#100=CIRCLE('',#335,8.525);
#101=CIRCLE('',#336,8.525);
#102=CIRCLE('',#338,1.);
#103=VERTEX_POINT('',#444);
#104=VERTEX_POINT('',#445);
#105=VERTEX_POINT('',#448);
#106=VERTEX_POINT('',#450);
#107=VERTEX_POINT('',#452);
#108=VERTEX_POINT('',#456);
#109=VERTEX_POINT('',#457);
#110=VERTEX_POINT('',#459);
#111=VERTEX_POINT('',#464);
#112=VERTEX_POINT('',#465);
#113=VERTEX_POINT('',#470);
#114=VERTEX_POINT('',#471);
#115=VERTEX_POINT('',#475);
#116=VERTEX_POINT('',#476);
#117=VERTEX_POINT('',#478);
#118=VERTEX_POINT('',#483);
#119=VERTEX_POINT('',#485);
#120=VERTEX_POINT('',#489);
#121=VERTEX_POINT('',#491);
#122=VERTEX_POINT('',#495);
#123=VERTEX_POINT('',#497);
#124=VERTEX_POINT('',#501);
#125=VERTEX_POINT('',#503);
#126=VERTEX_POINT('',#507);
#127=VERTEX_POINT('',#509);
#128=VERTEX_POINT('',#511);
#129=VERTEX_POINT('',#515);
#130=VERTEX_POINT('',#516);
#131=VERTEX_POINT('',#521);
#132=VERTEX_POINT('',#522);
#133=EDGE_CURVE('',#103,#104,#69,.T.);
#134=EDGE_CURVE('',#104,#103,#70,.T.);
#135=EDGE_CURVE('',#104,#105,#55,.T.);
#136=EDGE_CURVE('',#105,#106,#71,.T.);
#137=EDGE_CURVE('',#106,#107,#72,.T.);
#138=EDGE_CURVE('',#107,#105,#73,.T.);
#139=EDGE_CURVE('',#108,#109,#74,.T.);
#140=EDGE_CURVE('',#110,#108,#75,.T.);
#141=EDGE_CURVE('',#110,#104,#56,.T.);
#142=EDGE_CURVE('',#109,#110,#76,.T.);
#143=EDGE_CURVE('',#111,#112,#77,.T.);
#144=EDGE_CURVE('',#112,#111,#78,.T.);
#145=EDGE_CURVE('',#112,#109,#79,.T.);
#146=EDGE_CURVE('',#113,#114,#80,.T.);
#147=EDGE_CURVE('',#114,#113,#81,.T.);
#148=EDGE_CURVE('',#115,#116,#82,.T.);
#149=EDGE_CURVE('',#117,#115,#83,.T.);
#150=EDGE_CURVE('',#116,#117,#84,.T.);
#151=EDGE_CURVE('',#116,#114,#85,.T.);
#152=EDGE_CURVE('',#117,#118,#57,.T.);
#153=EDGE_CURVE('',#119,#118,#86,.T.);
#154=EDGE_CURVE('',#118,#119,#87,.T.);
#155=EDGE_CURVE('',#118,#120,#58,.T.);
#156=EDGE_CURVE('',#121,#120,#88,.T.);
#157=EDGE_CURVE('',#120,#121,#89,.T.);
#158=EDGE_CURVE('',#120,#122,#59,.T.);
#159=EDGE_CURVE('',#123,#122,#90,.T.);
#160=EDGE_CURVE('',#122,#123,#91,.T.);
#161=EDGE_CURVE('',#122,#124,#60,.T.);
#162=EDGE_CURVE('',#125,#124,#92,.T.);
#163=EDGE_CURVE('',#124,#125,#93,.T.);
#164=EDGE_CURVE('',#124,#126,#61,.T.);
#165=EDGE_CURVE('',#127,#126,#94,.T.);
#166=EDGE_CURVE('',#128,#127,#95,.T.);
#167=EDGE_CURVE('',#126,#128,#96,.T.);
#168=EDGE_CURVE('',#129,#130,#97,.T.);
#169=EDGE_CURVE('',#130,#129,#98,.T.);
#170=EDGE_CURVE('',#130,#127,#99,.T.);
#171=EDGE_CURVE('',#131,#132,#100,.T.);
#172=EDGE_CURVE('',#132,#131,#101,.T.);
#173=EDGE_CURVE('',#107,#132,#102,.T.);
#174=ORIENTED_EDGE('',*,*,#133,.F.);
#175=ORIENTED_EDGE('',*,*,#134,.F.);
#176=ORIENTED_EDGE('',*,*,#135,.T.);
#177=ORIENTED_EDGE('',*,*,#136,.T.);
#178=ORIENTED_EDGE('',*,*,#137,.T.);
#179=ORIENTED_EDGE('',*,*,#138,.T.);
#180=ORIENTED_EDGE('',*,*,#135,.F.);
#181=ORIENTED_EDGE('',*,*,#139,.F.);
#182=ORIENTED_EDGE('',*,*,#140,.F.);
#183=ORIENTED_EDGE('',*,*,#141,.T.);
#184=ORIENTED_EDGE('',*,*,#134,.T.);
#185=ORIENTED_EDGE('',*,*,#133,.T.);
#186=ORIENTED_EDGE('',*,*,#141,.F.);
#187=ORIENTED_EDGE('',*,*,#142,.F.);
#188=ORIENTED_EDGE('',*,*,#143,.F.);
#189=ORIENTED_EDGE('',*,*,#144,.F.);
#190=ORIENTED_EDGE('',*,*,#145,.T.);
#191=ORIENTED_EDGE('',*,*,#142,.T.);
#192=ORIENTED_EDGE('',*,*,#140,.T.);
#193=ORIENTED_EDGE('',*,*,#139,.T.);
#194=ORIENTED_EDGE('',*,*,#145,.F.);
#195=ORIENTED_EDGE('',*,*,#143,.T.);
#196=ORIENTED_EDGE('',*,*,#144,.T.);
#197=ORIENTED_EDGE('',*,*,#146,.F.);
#198=ORIENTED_EDGE('',*,*,#147,.F.);
#199=ORIENTED_EDGE('',*,*,#148,.F.);
#200=ORIENTED_EDGE('',*,*,#149,.F.);
#201=ORIENTED_EDGE('',*,*,#150,.F.);
#202=ORIENTED_EDGE('',*,*,#151,.T.);
#203=ORIENTED_EDGE('',*,*,#147,.T.);
#204=ORIENTED_EDGE('',*,*,#146,.T.);
#205=ORIENTED_EDGE('',*,*,#151,.F.);
#206=ORIENTED_EDGE('',*,*,#148,.T.);
#207=ORIENTED_EDGE('',*,*,#150,.T.);
#208=ORIENTED_EDGE('',*,*,#152,.T.);
#209=ORIENTED_EDGE('',*,*,#153,.F.);
#210=ORIENTED_EDGE('',*,*,#154,.F.);
#211=ORIENTED_EDGE('',*,*,#152,.F.);
#212=ORIENTED_EDGE('',*,*,#149,.T.);
#213=ORIENTED_EDGE('',*,*,#153,.T.);
#214=ORIENTED_EDGE('',*,*,#155,.T.);
#215=ORIENTED_EDGE('',*,*,#156,.F.);
#216=ORIENTED_EDGE('',*,*,#157,.F.);
#217=ORIENTED_EDGE('',*,*,#155,.F.);
#218=ORIENTED_EDGE('',*,*,#154,.T.);
#219=ORIENTED_EDGE('',*,*,#156,.T.);
#220=ORIENTED_EDGE('',*,*,#158,.T.);
#221=ORIENTED_EDGE('',*,*,#159,.F.);
#222=ORIENTED_EDGE('',*,*,#160,.F.);
#223=ORIENTED_EDGE('',*,*,#158,.F.);
#224=ORIENTED_EDGE('',*,*,#157,.T.);
#225=ORIENTED_EDGE('',*,*,#159,.T.);
#226=ORIENTED_EDGE('',*,*,#161,.T.);
#227=ORIENTED_EDGE('',*,*,#162,.F.);
#228=ORIENTED_EDGE('',*,*,#163,.F.);
#229=ORIENTED_EDGE('',*,*,#161,.F.);
#230=ORIENTED_EDGE('',*,*,#160,.T.);
#231=ORIENTED_EDGE('',*,*,#162,.T.);
#232=ORIENTED_EDGE('',*,*,#164,.T.);
#233=ORIENTED_EDGE('',*,*,#165,.F.);
#234=ORIENTED_EDGE('',*,*,#166,.F.);
#235=ORIENTED_EDGE('',*,*,#167,.F.);
#236=ORIENTED_EDGE('',*,*,#164,.F.);
#237=ORIENTED_EDGE('',*,*,#163,.T.);
#238=ORIENTED_EDGE('',*,*,#168,.F.);
#239=ORIENTED_EDGE('',*,*,#169,.F.);
#240=ORIENTED_EDGE('',*,*,#170,.T.);
#241=ORIENTED_EDGE('',*,*,#165,.T.);
#242=ORIENTED_EDGE('',*,*,#167,.T.);
#243=ORIENTED_EDGE('',*,*,#166,.T.);
#244=ORIENTED_EDGE('',*,*,#170,.F.);
#245=ORIENTED_EDGE('',*,*,#171,.F.);
#246=ORIENTED_EDGE('',*,*,#172,.F.);
#247=ORIENTED_EDGE('',*,*,#168,.T.);
#248=ORIENTED_EDGE('',*,*,#169,.T.);
#249=ORIENTED_EDGE('',*,*,#137,.F.);
#250=ORIENTED_EDGE('',*,*,#136,.F.);
#251=ORIENTED_EDGE('',*,*,#138,.F.);
#252=ORIENTED_EDGE('',*,*,#173,.T.);
#253=ORIENTED_EDGE('',*,*,#172,.T.);
#254=ORIENTED_EDGE('',*,*,#171,.T.);
#255=ORIENTED_EDGE('',*,*,#173,.F.);
#256=CYLINDRICAL_SURFACE('',#292,9.525);
#257=CYLINDRICAL_SURFACE('',#317,4.7625);
#258=CYLINDRICAL_SURFACE('',#323,5.);
#259=ADVANCED_FACE('',(#27),#256,.T.);
#260=ADVANCED_FACE('',(#28),#23,.T.);
#261=ADVANCED_FACE('',(#29),#19,.T.);
#262=ADVANCED_FACE('',(#30,#15),#17,.T.);
#263=ADVANCED_FACE('',(#31),#20,.T.);
#264=ADVANCED_FACE('',(#32),#24,.F.);
#265=ADVANCED_FACE('',(#33),#257,.F.);
#266=ADVANCED_FACE('',(#34),#25,.F.);
#267=ADVANCED_FACE('',(#35),#258,.F.);
#268=ADVANCED_FACE('',(#36),#26,.F.);
#269=ADVANCED_FACE('',(#37),#21,.T.);
#270=ADVANCED_FACE('',(#38,#16),#18,.T.);
#271=ADVANCED_FACE('',(#39),#22,.T.);
#272=CLOSED_SHELL('',(#259,#260,#261,#262,#263,#264,#265,#266,#267,#268,
#269,#270,#271));
#273=DERIVED_UNIT_ELEMENT(#275,1.);
#274=DERIVED_UNIT_ELEMENT(#532,3.);
#275=(
MASS_UNIT()
NAMED_UNIT(*)
SI_UNIT($,.GRAM.)
);
#276=DERIVED_UNIT((#273,#274));
#277=MEASURE_REPRESENTATION_ITEM('density measure',
POSITIVE_RATIO_MEASURE(1.),#276);
#278=PROPERTY_DEFINITION_REPRESENTATION(#283,#280);
#279=PROPERTY_DEFINITION_REPRESENTATION(#284,#281);
#280=REPRESENTATION('material name',(#282),#529);
#281=REPRESENTATION('density',(#277),#529);
#282=DESCRIPTIVE_REPRESENTATION_ITEM('Generic','Generic');
#283=PROPERTY_DEFINITION('material property','material name',#539);
#284=PROPERTY_DEFINITION('material property','density of part',#539);
#285=DATE_TIME_ROLE('creation_date');
#286=APPLIED_DATE_AND_TIME_ASSIGNMENT(#287,#285,(#539));
#287=DATE_AND_TIME(#288,#289);
#288=CALENDAR_DATE(2018,20,12);
#289=LOCAL_TIME(14,59,6.,#290);
#290=COORDINATED_UNIVERSAL_TIME_OFFSET(0,0,.BEHIND.);
#291=AXIS2_PLACEMENT_3D('placement',#442,#339,#340);
#292=AXIS2_PLACEMENT_3D('',#443,#341,#342);
#293=AXIS2_PLACEMENT_3D('',#446,#343,#344);
#294=AXIS2_PLACEMENT_3D('',#447,#345,#346);
#295=AXIS2_PLACEMENT_3D('',#451,#348,#349);
#296=AXIS2_PLACEMENT_3D('',#453,#350,#351);
#297=AXIS2_PLACEMENT_3D('',#454,#352,#353);
#298=AXIS2_PLACEMENT_3D('',#455,#354,#355);
#299=AXIS2_PLACEMENT_3D('',#458,#356,#357);
#300=AXIS2_PLACEMENT_3D('',#460,#358,#359);
#301=AXIS2_PLACEMENT_3D('',#462,#361,#362);
#302=AXIS2_PLACEMENT_3D('',#463,#363,#364);
#303=AXIS2_PLACEMENT_3D('',#466,#365,#366);
#304=AXIS2_PLACEMENT_3D('',#467,#367,#368);
#305=AXIS2_PLACEMENT_3D('',#468,#369,#370);
#306=AXIS2_PLACEMENT_3D('',#469,#371,#372);
#307=AXIS2_PLACEMENT_3D('',#472,#373,#374);
#308=AXIS2_PLACEMENT_3D('',#473,#375,#376);
#309=AXIS2_PLACEMENT_3D('',#474,#377,#378);
#310=AXIS2_PLACEMENT_3D('',#477,#379,#380);
#311=AXIS2_PLACEMENT_3D('',#479,#381,#382);
#312=AXIS2_PLACEMENT_3D('',#480,#383,#384);
#313=AXIS2_PLACEMENT_3D('',#481,#385,#386);
#314=AXIS2_PLACEMENT_3D('',#482,#387,#388);
#315=AXIS2_PLACEMENT_3D('',#486,#390,#391);
#316=AXIS2_PLACEMENT_3D('',#487,#392,#393);
#317=AXIS2_PLACEMENT_3D('',#488,#394,#395);
#318=AXIS2_PLACEMENT_3D('',#492,#397,#398);
#319=AXIS2_PLACEMENT_3D('',#493,#399,#400);
#320=AXIS2_PLACEMENT_3D('',#494,#401,#402);
#321=AXIS2_PLACEMENT_3D('',#498,#404,#405);
#322=AXIS2_PLACEMENT_3D('',#499,#406,#407);
#323=AXIS2_PLACEMENT_3D('',#500,#408,#409);
#324=AXIS2_PLACEMENT_3D('',#504,#411,#412);
#325=AXIS2_PLACEMENT_3D('',#505,#413,#414);
#326=AXIS2_PLACEMENT_3D('',#506,#415,#416);
#327=AXIS2_PLACEMENT_3D('',#510,#418,#419);
#328=AXIS2_PLACEMENT_3D('',#512,#420,#421);
#329=AXIS2_PLACEMENT_3D('',#513,#422,#423);
#330=AXIS2_PLACEMENT_3D('',#514,#424,#425);
#331=AXIS2_PLACEMENT_3D('',#517,#426,#427);
#332=AXIS2_PLACEMENT_3D('',#518,#428,#429);
#333=AXIS2_PLACEMENT_3D('',#519,#430,#431);
#334=AXIS2_PLACEMENT_3D('',#520,#432,#433);
#335=AXIS2_PLACEMENT_3D('',#523,#434,#435);
#336=AXIS2_PLACEMENT_3D('',#524,#436,#437);
#337=AXIS2_PLACEMENT_3D('',#525,#438,#439);
#338=AXIS2_PLACEMENT_3D('',#526,#440,#441);
#339=DIRECTION('axis',(0.,0.,1.));
#340=DIRECTION('refdir',(1.,0.,0.));
#341=DIRECTION('center_axis',(1.,0.,0.));
#342=DIRECTION('ref_axis',(0.,1.,0.));
#343=DIRECTION('center_axis',(1.,0.,0.));
#344=DIRECTION('ref_axis',(0.,0.,-1.));
#345=DIRECTION('center_axis',(1.,0.,0.));
#346=DIRECTION('ref_axis',(0.,0.,-1.));
#347=DIRECTION('',(-1.,0.,0.));
#348=DIRECTION('center_axis',(1.,0.,0.));
#349=DIRECTION('ref_axis',(0.,0.,-1.));
#350=DIRECTION('center_axis',(1.,0.,0.));
#351=DIRECTION('ref_axis',(0.,0.,-1.));
#352=DIRECTION('center_axis',(1.,0.,0.));
#353=DIRECTION('ref_axis',(0.,0.,-1.));
#354=DIRECTION('center_axis',(-1.,0.,0.));
#355=DIRECTION('ref_axis',(0.,1.,0.));
#356=DIRECTION('center_axis',(1.,0.,0.));
#357=DIRECTION('ref_axis',(0.,0.,-1.));
#358=DIRECTION('center_axis',(1.,0.,0.));
#359=DIRECTION('ref_axis',(0.,0.,-1.));
#360=DIRECTION('',(-0.998629534754574,-0.0523359562429361,-6.40930612932277E-18));
#361=DIRECTION('center_axis',(1.,0.,0.));
#362=DIRECTION('ref_axis',(0.,0.,-1.));
#363=DIRECTION('center_axis',(1.,0.,0.));
#364=DIRECTION('ref_axis',(0.,0.,-1.));
#365=DIRECTION('center_axis',(1.,0.,0.));
#366=DIRECTION('ref_axis',(0.,0.,-1.));
#367=DIRECTION('center_axis',(1.,0.,0.));
#368=DIRECTION('ref_axis',(0.,0.,-1.));
#369=DIRECTION('center_axis',(0.,-1.,-1.22464679914735E-16));
#370=DIRECTION('ref_axis',(0.,-1.22464679914735E-16,1.));
#371=DIRECTION('center_axis',(1.,0.,0.));
#372=DIRECTION('ref_axis',(0.,0.,-1.));
#373=DIRECTION('center_axis',(1.,0.,0.));
#374=DIRECTION('ref_axis',(0.,0.,-1.));
#375=DIRECTION('center_axis',(1.,0.,0.));
#376=DIRECTION('ref_axis',(0.,0.,-1.));
#377=DIRECTION('center_axis',(1.,0.,0.));
#378=DIRECTION('ref_axis',(0.,0.,-1.));
#379=DIRECTION('center_axis',(1.,0.,0.));
#380=DIRECTION('ref_axis',(0.,0.,-1.));
#381=DIRECTION('center_axis',(1.,0.,0.));
#382=DIRECTION('ref_axis',(0.,0.,-1.));
#383=DIRECTION('center_axis',(1.,0.,0.));
#384=DIRECTION('ref_axis',(0.,0.,-1.));
#385=DIRECTION('center_axis',(0.,-1.,-1.22464679914735E-16));
#386=DIRECTION('ref_axis',(0.,-1.22464679914735E-16,1.));
#387=DIRECTION('center_axis',(1.,0.,0.));
#388=DIRECTION('ref_axis',(0.,1.,0.));
#389=DIRECTION('',(-0.866025403784433,0.500000000000009,6.12323399573688E-17));
#390=DIRECTION('center_axis',(1.,0.,0.));
#391=DIRECTION('ref_axis',(0.,0.,-1.));
#392=DIRECTION('center_axis',(1.,0.,0.));
#393=DIRECTION('ref_axis',(0.,0.,-1.));
#394=DIRECTION('center_axis',(1.,0.,0.));
#395=DIRECTION('ref_axis',(0.,1.,0.));
#396=DIRECTION('',(-1.,0.,0.));
#397=DIRECTION('center_axis',(1.,0.,0.));
#398=DIRECTION('ref_axis',(0.,0.,-1.));
#399=DIRECTION('center_axis',(1.,0.,0.));
#400=DIRECTION('ref_axis',(0.,0.,-1.));
#401=DIRECTION('center_axis',(-1.,0.,0.));
#402=DIRECTION('ref_axis',(0.,1.,0.));
#403=DIRECTION('',(-0.522498564715951,-0.852640164354091,-1.04418304810071E-16));
#404=DIRECTION('center_axis',(1.,0.,0.));
#405=DIRECTION('ref_axis',(0.,0.,-1.));
#406=DIRECTION('center_axis',(1.,0.,0.));
#407=DIRECTION('ref_axis',(0.,0.,-1.));
#408=DIRECTION('center_axis',(1.,0.,0.));
#409=DIRECTION('ref_axis',(0.,1.,0.));
#410=DIRECTION('',(-1.,0.,0.));
#411=DIRECTION('center_axis',(1.,0.,0.));
#412=DIRECTION('ref_axis',(0.,0.,-1.));
#413=DIRECTION('center_axis',(1.,0.,0.));
#414=DIRECTION('ref_axis',(0.,0.,-1.));
#415=DIRECTION('center_axis',(-1.,0.,0.));
#416=DIRECTION('ref_axis',(0.,1.,0.));
#417=DIRECTION('',(-0.866025403784436,-0.500000000000005,-6.12323399573683E-17));
#418=DIRECTION('center_axis',(1.,0.,0.));
#419=DIRECTION('ref_axis',(0.,0.,-1.));
#420=DIRECTION('center_axis',(1.,0.,0.));
#421=DIRECTION('ref_axis',(0.,0.,-1.));
#422=DIRECTION('center_axis',(1.,0.,0.));
#423=DIRECTION('ref_axis',(0.,0.,-1.));
#424=DIRECTION('center_axis',(1.,0.,0.));
#425=DIRECTION('ref_axis',(0.,0.,-1.));
#426=DIRECTION('center_axis',(1.,0.,0.));
#427=DIRECTION('ref_axis',(0.,0.,-1.));
#428=DIRECTION('center_axis',(1.,0.,0.));
#429=DIRECTION('ref_axis',(0.,0.,-1.));
#430=DIRECTION('center_axis',(0.,-1.,-1.22464679914735E-16));
#431=DIRECTION('ref_axis',(0.,-1.22464679914735E-16,1.));
#432=DIRECTION('center_axis',(-1.,0.,0.));
#433=DIRECTION('ref_axis',(0.,0.,1.));
#434=DIRECTION('center_axis',(1.,0.,0.));
#435=DIRECTION('ref_axis',(0.,0.,-1.));
#436=DIRECTION('center_axis',(1.,0.,0.));
#437=DIRECTION('ref_axis',(0.,0.,-1.));
#438=DIRECTION('center_axis',(1.,0.,0.));
#439=DIRECTION('ref_axis',(0.,0.,-1.));
#440=DIRECTION('center_axis',(0.,-1.,-1.22464679914735E-16));
#441=DIRECTION('ref_axis',(0.,-1.22464679914735E-16,1.));
#442=CARTESIAN_POINT('',(0.,0.,0.));
#443=CARTESIAN_POINT('Origin',(36.2227883479195,0.,0.));
#444=CARTESIAN_POINT('',(71.4455766958389,9.525,0.));
#445=CARTESIAN_POINT('',(71.4455766958389,-9.525,-1.16647607618785E-15));
#446=CARTESIAN_POINT('Origin',(71.4455766958389,0.,0.));
#447=CARTESIAN_POINT('Origin',(71.4455766958389,0.,0.));
#448=CARTESIAN_POINT('',(1.00000000000001,-9.525,-1.16647607618785E-15));
#449=CARTESIAN_POINT('',(36.2227883479195,-9.525,-1.16647607618785E-15));
#450=CARTESIAN_POINT('',(1.,9.525,0.));
#451=CARTESIAN_POINT('Origin',(1.,0.,0.));
#452=CARTESIAN_POINT('',(1.,-1.16647607618785E-15,9.525));
#453=CARTESIAN_POINT('Origin',(1.,0.,0.));
#454=CARTESIAN_POINT('Origin',(1.,0.,0.));
#455=CARTESIAN_POINT('Origin',(87.9539563260409,0.,0.));
#456=CARTESIAN_POINT('',(104.462335956243,7.79466496803969,0.));
#457=CARTESIAN_POINT('',(104.462335956243,-9.54571150353581E-16,7.79466496803969));
#458=CARTESIAN_POINT('Origin',(104.462335956243,0.,0.));
#459=CARTESIAN_POINT('',(104.462335956243,-7.79466496803969,-9.54571150353582E-16));
#460=CARTESIAN_POINT('Origin',(104.462335956243,0.,0.));
#461=CARTESIAN_POINT('',(87.9539563260409,-8.65983248401985,-1.06052361327072E-15));
#462=CARTESIAN_POINT('Origin',(104.462335956243,0.,0.));
#463=CARTESIAN_POINT('Origin',(104.41,0.,0.));
#464=CARTESIAN_POINT('',(105.41,6.79603543328512,0.));
#465=CARTESIAN_POINT('',(105.41,-8.32274304026462E-16,6.79603543328512));
#466=CARTESIAN_POINT('Origin',(105.41,0.,0.));
#467=CARTESIAN_POINT('Origin',(105.41,0.,0.));
#468=CARTESIAN_POINT('Origin',(104.41,-8.32274304026462E-16,6.79603543328512));
#469=CARTESIAN_POINT('Origin',(105.41,5.16664518843275,0.));
#470=CARTESIAN_POINT('',(105.41,5.16664518843275,0.));
#471=CARTESIAN_POINT('',(105.41,-6.32731549234424E-16,5.16664518843275));
#472=CARTESIAN_POINT('Origin',(105.41,0.,0.));
#473=CARTESIAN_POINT('Origin',(105.41,0.,0.));
#474=CARTESIAN_POINT('Origin',(105.21,0.,0.));
#475=CARTESIAN_POINT('',(105.31,4.99344010767585,0.));
#476=CARTESIAN_POINT('',(105.31,-6.11520044459925E-16,4.99344010767585));
#477=CARTESIAN_POINT('Origin',(105.31,0.,0.));
#478=CARTESIAN_POINT('',(105.31,-4.99344010767585,-6.11520044459925E-16));
#479=CARTESIAN_POINT('Origin',(105.31,0.,0.));
#480=CARTESIAN_POINT('Origin',(105.31,0.,0.));
#481=CARTESIAN_POINT('Origin',(105.21,-6.32731549234424E-16,5.16664518843275));
#482=CARTESIAN_POINT('Origin',(105.11,0.,0.));
#483=CARTESIAN_POINT('',(104.91,-4.7625,-5.83238038093927E-16));
#484=CARTESIAN_POINT('',(105.11,-4.87797005383793,-5.97379041276926E-16));
#485=CARTESIAN_POINT('',(104.91,4.7625,0.));
#486=CARTESIAN_POINT('Origin',(104.91,0.,0.));
#487=CARTESIAN_POINT('Origin',(104.91,0.,0.));
#488=CARTESIAN_POINT('Origin',(92.16,0.,0.));
#489=CARTESIAN_POINT('',(79.41,-4.7625,-5.83238038093927E-16));
#490=CARTESIAN_POINT('',(92.16,-4.7625,-5.83238038093927E-16));
#491=CARTESIAN_POINT('',(79.41,4.7625,0.));
#492=CARTESIAN_POINT('Origin',(79.41,0.,0.));
#493=CARTESIAN_POINT('Origin',(79.41,0.,0.));
#494=CARTESIAN_POINT('Origin',(79.3372299064084,0.,0.));
#495=CARTESIAN_POINT('',(79.2644598128168,-5.,-6.12323399573677E-16));
#496=CARTESIAN_POINT('',(79.3372299064084,-4.88125,-5.97780718833802E-16));
#497=CARTESIAN_POINT('',(79.2644598128168,5.,0.));
#498=CARTESIAN_POINT('Origin',(79.2644598128168,0.,0.));
#499=CARTESIAN_POINT('Origin',(79.2644598128168,0.,0.));
#500=CARTESIAN_POINT('Origin',(39.8822299064084,0.,0.));
#501=CARTESIAN_POINT('',(0.499999999999998,-5.,-6.12323399573677E-16));
#502=CARTESIAN_POINT('',(39.8822299064084,-5.,-6.12323399573677E-16));
#503=CARTESIAN_POINT('',(0.5,5.,0.));
#504=CARTESIAN_POINT('Origin',(0.5,0.,0.));
#505=CARTESIAN_POINT('Origin',(0.5,0.,0.));
#506=CARTESIAN_POINT('Origin',(0.300000000000002,0.,0.));
#507=CARTESIAN_POINT('',(0.100000000000005,-5.23094010767585,-6.40605405939674E-16));
#508=CARTESIAN_POINT('',(0.300000000000002,-5.11547005383792,-6.26464402756675E-16));
#509=CARTESIAN_POINT('',(0.100000000000005,-6.40605405939674E-16,5.23094010767585));
#510=CARTESIAN_POINT('Origin',(0.100000000000005,0.,0.));
#511=CARTESIAN_POINT('',(0.100000000000005,5.23094010767585,0.));
#512=CARTESIAN_POINT('Origin',(0.100000000000005,0.,0.));
#513=CARTESIAN_POINT('Origin',(0.100000000000005,0.,0.));
#514=CARTESIAN_POINT('Origin',(0.2,0.,0.));
#515=CARTESIAN_POINT('',(3.60822483003176E-15,5.40414518843274,0.));
#516=CARTESIAN_POINT('',(3.60822483003176E-15,-6.61816910714172E-16,5.40414518843274));
#517=CARTESIAN_POINT('Origin',(3.60822483003176E-15,0.,0.));
#518=CARTESIAN_POINT('Origin',(3.60822483003176E-15,0.,0.));
#519=CARTESIAN_POINT('Origin',(0.2,-6.61816910714172E-16,5.40414518843274));
#520=CARTESIAN_POINT('Origin',(5.55111512312578E-16,8.525,0.));
#521=CARTESIAN_POINT('',(5.55111512312578E-16,8.525,0.));
#522=CARTESIAN_POINT('',(5.55111512312578E-16,-1.04401139627312E-15,8.525));
#523=CARTESIAN_POINT('Origin',(5.55111512312578E-16,0.,0.));
#524=CARTESIAN_POINT('Origin',(5.55111512312578E-16,0.,0.));
#525=CARTESIAN_POINT('Origin',(1.,0.,0.));
#526=CARTESIAN_POINT('Origin',(1.,-1.04401139627312E-15,8.525));
#527=UNCERTAINTY_MEASURE_WITH_UNIT(LENGTH_MEASURE(0.01),#531,
'DISTANCE_ACCURACY_VALUE',
'Maximum model space distance between geometric entities at asserted c
onnectivities');
#528=UNCERTAINTY_MEASURE_WITH_UNIT(LENGTH_MEASURE(0.01),#531,
'DISTANCE_ACCURACY_VALUE',
'Maximum model space distance between geometric entities at asserted c
onnectivities');
#529=(
GEOMETRIC_REPRESENTATION_CONTEXT(3)
GLOBAL_UNCERTAINTY_ASSIGNED_CONTEXT((#527))
GLOBAL_UNIT_ASSIGNED_CONTEXT((#531,#534,#533))
REPRESENTATION_CONTEXT('','3D')
);
#530=(
GEOMETRIC_REPRESENTATION_CONTEXT(3)
GLOBAL_UNCERTAINTY_ASSIGNED_CONTEXT((#528))
GLOBAL_UNIT_ASSIGNED_CONTEXT((#531,#534,#533))
REPRESENTATION_CONTEXT('','3D')
);
#531=(
LENGTH_UNIT()
NAMED_UNIT(*)
SI_UNIT(.MILLI.,.METRE.)
);
#532=(
LENGTH_UNIT()
NAMED_UNIT(*)
SI_UNIT(.CENTI.,.METRE.)
);
#533=(
NAMED_UNIT(*)
SI_UNIT($,.STERADIAN.)
SOLID_ANGLE_UNIT()
);
#534=(
NAMED_UNIT(*)
PLANE_ANGLE_UNIT()
SI_UNIT($,.RADIAN.)
);
#535=SHAPE_DEFINITION_REPRESENTATION(#536,#537);
#536=PRODUCT_DEFINITION_SHAPE('',$,#539);
#537=SHAPE_REPRESENTATION('',(#291),#529);
#538=PRODUCT_DEFINITION_CONTEXT('part definition',#543,'design');
#539=PRODUCT_DEFINITION('S075-SD037-0415','S075-SD037-0415',#540,#538);
#540=PRODUCT_DEFINITION_FORMATION('',$,#545);
#541=PRODUCT_RELATED_PRODUCT_CATEGORY('S075-SD037-0415',
'S075-SD037-0415',(#545));
#542=APPLICATION_PROTOCOL_DEFINITION('international standard',
'automotive_design',2009,#543);
#543=APPLICATION_CONTEXT(
'Core Data for Automotive Mechanical Design Process');
#544=PRODUCT_CONTEXT('part definition',#543,'mechanical');
#545=PRODUCT('S075-SD037-0415','S075-SD037-0415',$,(#544));
#546=PRESENTATION_STYLE_ASSIGNMENT((#547));
#547=SURFACE_STYLE_USAGE(.BOTH.,#548);
#548=SURFACE_SIDE_STYLE('',(#549));
#549=SURFACE_STYLE_FILL_AREA(#550);
#550=FILL_AREA_STYLE('',(#551));
#551=FILL_AREA_STYLE_COLOUR('',#552);
#552=COLOUR_RGB('',0.749019607843137,0.749019607843137,0.749019607843137);
ENDSEC;
END-ISO-10303-21;
